  0
SECTION
  2
HEADER
  9
$EXTMIN
 10
0
 20
0
  9
$EXTMAX
 10
2520
 20
1782
  0
ENDSEC
  0
SECTION
  2
TABLES
  0
TABLE
  2
LTYPE
 70
     9
  0
LTYPE
  2
CONTINUOUS
 70
    64
  3
実線
 72
    65
 73
     0
 40
0.0
  0
LTYPE
  2
DASHED1
 70
    64
  3
--  --  --  --  --  --  --  --  
 72
    65
 73
     2
 40
2.5
 49
1.25
 49
-1.25
  0
LTYPE
  2
DASHED2
 70
    64
  3
----    ----    ----    ----    
 72
    65
 73
     2
 40
5.0
 49
2.5
 49
-2.5
  0
LTYPE
  2
DASHED3
 70
    64
  3
------  ------  ------  ------  
 72
    65
 73
     2
 40
5.0
 49
3.75
 49
-1.25
  0
LTYPE
  2
CENTER1
 70
    64
  3
----- - ----- - ----- - ----- - 
 72
    65
 73
     4
 40
10.0
 49
6.25
 49
-1.25
 49
1.25
 49
-1.25
  0
LTYPE
  2
CENTER2
 70
    64
  3
----------  --  ----------  --  
 72
    65
 73
     4
 40
20.0
 49
12.5
 49
-2.5
 49
2.5
 49
-2.5
  0
LTYPE
  2
PHANTOM1
 70
    64
  3
--- - - --- - - --- - - --- - - 
 72
    65
 73
     6
 40
10.0
 49
3.25
 49
-1.25
 49
1.25
 49
-1.25
 49
1.25
 49
-1.25
  0
LTYPE
  2
PHANTOM2
 70
    64
  3
--------  -  -  --------  -  -  
 72
    65
 73
     6
 40
20.0
 49
10.0
 49
-2.5
 49
1.25
 49
-2.5
 49
1.25
 49
-2.5
  0
LTYPE
  2
DOT
 70
    64
  3
-   -   -   -   -   -   -   -   
 72
    65
 73
     2
 40
2.5
 49
0.625
 49
-1.875
  0
ENDTAB
  0
TABLE
  2
STYLE
 70
    1
  0
STYLE
  2
STANDARD
 70
    64
 40
0.0
 41
1.0
 42
0.0
 50
0.0
 71
     0
  3
TXT
  4
BIGFONT
  0
ENDTAB
  0
TABLE
  2
LAYER
 70
    4
  0
LAYER
  2
0-2
 70
   64
 62
    7
  6
CONTINUOUS
  0
LAYER
  2
0-8
 70
   64
 62
    7
  6
CONTINUOUS
  0
LAYER
  2
0-d
 70
   64
 62
    7
  6
CONTINUOUS
  0
LAYER
  2
ADD_LINE
 70
   64
 62
    7
  6
CONTINUOUS
  0
ENDTAB
  0
ENDSEC
  0
SECTION
  2
ENTITIES
  0
LINE
  8
0-d
  6
CONTINUOUS
 62
    7
 10
150.00001
 20
1654.6207
 11
1110
 21
1654.6207
  0
LINE
  8
0-d
  6
CONTINUOUS
 62
    7
 10
150.00001
 20
1660.6207
 11
1110
 21
1660.6207
  0
LINE
  8
0-d
  6
CONTINUOUS
 62
    7
 10
149.99978
 20
113.99992
 11
1110.0001
 21
113.99992
  0
LINE
  8
0-d
  6
CONTINUOUS
 62
    7
 10
149.99978
 20
53.99988
 11
149.99978
 21
161.99993
  0
LINE
  8
0-d
  6
CONTINUOUS
 62
    7
 10
149.99978
 20
53.99988
 11
1110.0001
 21
53.99988
  0
LINE
  8
0-d
  6
CONTINUOUS
 62
    7
 10
1110.0001
 20
161.99993
 11
1110.0001
 21
53.99988
  0
LINE
  8
0-d
  6
CONTINUOUS
 62
    7
 10
149.99978
 20
161.99993
 11
1110.0001
 21
161.99993
  0
LINE
  8
0-d
  6
CONTINUOUS
 62
    7
 10
629.99999
 20
161.99993
 11
629.99999
 21
53.99988
  0
LINE
  8
0-d
  6
CONTINUOUS
 62
    7
 10
390.00009
 20
53.99988
 11
390.00009
 21
113.99992
  0
LINE
  8
0-d
  6
CONTINUOUS
 62
    7
 10
629.99999
 20
113.99992
 11
629.99999
 21
161.99993
  0
LINE
  8
0-d
  6
CONTINUOUS
 62
    7
 10
509.99982
 20
53.99988
 11
509.99982
 21
113.99992
  0
LINE
  8
0-d
  6
CONTINUOUS
 62
    7
 10
171
 20
53.99988
 11
171
 21
113.99992
  0
LINE
  8
0-d
  6
CONTINUOUS
 62
    7
 10
411.00001
 20
53.99988
 11
411.00001
 21
113.99992
  0
LINE
  8
0-d
  6
CONTINUOUS
 62
    7
 10
531.00004
 20
53.99988
 11
531.00004
 21
113.99992
  0
LINE
  8
0-d
  6
CONTINUOUS
 62
    7
 10
609
 20
113.99992
 11
609
 21
161.99993
  0
LINE
  8
0-d
  6
CONTINUOUS
 62
    7
 10
930.00016
 20
113.99992
 11
930.00016
 21
161.99993
  0
LINE
  8
0-d
  6
CONTINUOUS
 62
    7
 10
951.00008
 20
113.99992
 11
951.00008
 21
161.99993
  0
LINE
  8
0-2
  6
CONTINUOUS
 62
    3
 10
289.95384
 20
1384.8576
 11
629.99999
 21
1463.3299
  0
LINE
  8
0-2
  6
CONTINUOUS
 62
    3
 10
969.33396
 20
1385.0217
 11
629.99999
 21
1463.3299
  0
LINE
  8
0-8
  6
CONTINUOUS
 62
    7
 10
150.00049
 20
1078.3294
 11
150.00049
 21
1463.3299
  0
LINE
  8
0-8
  6
CONTINUOUS
 62
    7
 10
262.75124
 20
1078.3294
 11
150.00049
 21
1078.3294
  0
LINE
  8
0-8
  6
CONTINUOUS
 62
    7
 10
304.99991
 20
1548.7733
 11
955.00096
 21
1548.7733
  0
LINE
  8
0-8
  6
CONTINUOUS
 62
    7
 10
422.49988
 20
1008.7901
 11
837.5001
 21
1008.7901
  0
LINE
  8
0-2
  6
CONTINUOUS
 62
    3
 10
304.99991
 20
1388.3299
 11
304.99991
 21
1276.5789
  0
LINE
  8
0-2
  6
CONTINUOUS
 62
    3
 10
304.99991
 20
1263.5791
 11
304.99991
 21
1241.3293
  0
LINE
  8
0-2
  6
CONTINUOUS
 62
    3
 10
955.00007
 20
1388.3299
 11
955.00096
 21
1276.5789
  0
LINE
  8
0-2
  6
CONTINUOUS
 62
    3
 10
422.49988
 20
1136.8295
 11
837.50099
 21
1136.8295
  0
LINE
  8
0-2
  6
CONTINUOUS
 62
    3
 10
422.49988
 20
1149.8291
 11
837.50099
 21
1149.8291
  0
LINE
  8
0-2
  6
CONTINUOUS
 62
    3
 10
422.49988
 20
1091.3294
 11
837.50099
 21
1091.3294
  0
LINE
  8
0-2
  6
CONTINUOUS
 62
    3
 10
422.49988
 20
1078.3296
 11
837.50099
 21
1078.3296
  0
LINE
  8
0-2
  6
CONTINUOUS
 62
    3
 10
422.49988
 20
1136.8295
 11
422.49988
 21
1091.3292
  0
LINE
  8
0-2
  6
CONTINUOUS
 62
    3
 10
837.5001
 20
1136.8295
 11
837.5001
 21
1091.3292
  0
LINE
  8
0-2
  6
CONTINUOUS
 62
    3
 10
422.49988
 20
1228.3298
 11
422.49988
 21
1149.8291
  0
LINE
  8
0-8
  6
CONTINUOUS
 62
    7
 10
304.99991
 20
1426.6452
 11
304.99991
 21
1548.7733
  0
LINE
  8
0-8
  6
CONTINUOUS
 62
    7
 10
370.06792
 20
1463.3299
 11
150.00049
 21
1463.3299
  0
LINE
  8
0-8
  6
CONTINUOUS
 62
    7
 10
955.00096
 20
1426.6452
 11
955.00096
 21
1548.7733
  0
LINE
  8
0-2
  6
CONTINUOUS
 62
    3
 10
837.5001
 20
1136.8295
 11
837.5001
 21
1091.3292
  0
LINE
  8
0-2
  6
CONTINUOUS
 62
    3
 10
955.00007
 20
1263.5791
 11
955.00007
 21
1241.3293
  0
LINE
  8
0-8
  6
CONTINUOUS
 62
    7
 10
422.49988
 20
1062.5482
 11
422.49988
 21
1008.7901
  0
LINE
  8
0-8
  6
CONTINUOUS
 62
    7
 10
837.5001
 20
1062.5482
 11
837.5001
 21
1008.7901
  0
LINE
  8
0-2
  6
CONTINUOUS
 62
    3
 10
644.76235
 20
1264.8795
 11
648.64735
 21
1267.2671
  0
LINE
  8
0-2
  6
CONTINUOUS
 62
    3
 10
648.64735
 20
1267.2671
 11
652.5138
 21
1269.7022
  0
LINE
  8
0-2
  6
CONTINUOUS
 62
    3
 10
652.5138
 20
1269.7022
 11
656.34402
 21
1272.2285
  0
LINE
  8
0-2
  6
CONTINUOUS
 62
    3
 10
656.34402
 20
1272.2285
 11
660.09466
 21
1274.8953
  0
LINE
  8
0-2
  6
CONTINUOUS
 62
    3
 10
660.09466
 20
1274.8953
 11
663.69788
 21
1277.7564
  0
LINE
  8
0-2
  6
CONTINUOUS
 62
    3
 10
663.69788
 20
1277.7564
 11
667.07781
 21
1280.8579
  0
LINE
  8
0-2
  6
CONTINUOUS
 62
    3
 10
667.07781
 20
1280.8579
 11
670.16051
 21
1284.2561
  0
LINE
  8
0-2
  6
CONTINUOUS
 62
    3
 10
670.16051
 20
1284.2561
 11
672.8725
 21
1287.998
  0
LINE
  8
0-2
  6
CONTINUOUS
 62
    3
 10
672.8725
 20
1287.998
 11
675.23768
 21
1292.0457
  0
LINE
  8
0-2
  6
CONTINUOUS
 62
    3
 10
675.23768
 20
1292.0457
 11
677.47266
 21
1296.1793
  0
LINE
  8
0-2
  6
CONTINUOUS
 62
    3
 10
677.47266
 20
1296.1793
 11
679.80384
 21
1300.1649
  0
LINE
  8
0-2
  6
CONTINUOUS
 62
    3
 10
679.80384
 20
1300.1649
 11
682.47114
 21
1303.7696
  0
LINE
  8
0-2
  6
CONTINUOUS
 62
    3
 10
682.47114
 20
1303.7696
 11
685.69963
 21
1306.7583
  0
LINE
  8
0-2
  6
CONTINUOUS
 62
    3
 10
685.69963
 20
1306.7583
 11
689.56103
 21
1309.0695
  0
LINE
  8
0-2
  6
CONTINUOUS
 62
    3
 10
689.56103
 20
1309.0695
 11
693.81972
 21
1310.9574
  0
LINE
  8
0-2
  6
CONTINUOUS
 62
    3
 10
693.81972
 20
1310.9574
 11
695.83586
 21
1311.7629
  0
LINE
  8
0-2
  6
CONTINUOUS
 62
    3
 10
693.81972
 20
1310.9574
 11
696.6242
 21
1311.403
  0
LINE
  8
0-2
  6
CONTINUOUS
 62
    3
 10
696.6242
 20
1311.403
 11
699.45377
 21
1311.7907
  0
LINE
  8
0-2
  6
CONTINUOUS
 62
    3
 10
699.45377
 20
1311.7907
 11
702.32997
 21
1312.0682
  0
LINE
  8
0-2
  6
CONTINUOUS
 62
    3
 10
702.32997
 20
1312.0682
 11
705.27697
 21
1312.1736
  0
LINE
  8
0-2
  6
CONTINUOUS
 62
    3
 10
705.27697
 20
1312.1736
 11
708.3138
 21
1312.0546
  0
LINE
  8
0-2
  6
CONTINUOUS
 62
    3
 10
708.3138
 20
1312.0546
 11
711.35212
 21
1311.6119
  0
LINE
  8
0-2
  6
CONTINUOUS
 62
    3
 10
711.35212
 20
1311.6119
 11
714.18659
 21
1310.7237
  0
LINE
  8
0-2
  6
CONTINUOUS
 62
    3
 10
714.18659
 20
1310.7237
 11
716.60269
 21
1309.2521
  0
LINE
  8
0-2
  6
CONTINUOUS
 62
    3
 10
716.60269
 20
1309.2521
 11
718.42642
 21
1307.1016
  0
LINE
  8
0-2
  6
CONTINUOUS
 62
    3
 10
718.42642
 20
1307.1016
 11
719.84811
 21
1304.5194
  0
LINE
  8
0-2
  6
CONTINUOUS
 62
    3
 10
643.23718
 20
1254.2079
 11
647.78968
 21
1254.8836
  0
LINE
  8
0-2
  6
CONTINUOUS
 62
    3
 10
647.78968
 20
1254.8836
 11
652.31441
 21
1255.6486
  0
LINE
  8
0-2
  6
CONTINUOUS
 62
    3
 10
652.31441
 20
1255.6486
 11
656.78911
 21
1256.583
  0
LINE
  8
0-2
  6
CONTINUOUS
 62
    3
 10
656.78911
 20
1256.583
 11
661.18335
 21
1257.7789
  0
LINE
  8
0-2
  6
CONTINUOUS
 62
    3
 10
661.18335
 20
1257.7789
 11
665.47484
 21
1259.3185
  0
LINE
  8
0-2
  6
CONTINUOUS
 62
    3
 10
665.47484
 20
1259.3185
 11
669.63896
 21
1261.223
  0
LINE
  8
0-2
  6
CONTINUOUS
 62
    3
 10
669.63896
 20
1261.223
 11
673.65788
 21
1263.455
  0
LINE
  8
0-2
  6
CONTINUOUS
 62
    3
 10
673.65788
 20
1263.455
 11
677.51007
 21
1265.9894
  0
LINE
  8
0-2
  6
CONTINUOUS
 62
    3
 10
677.51007
 20
1265.9894
 11
681.17668
 21
1268.7811
  0
LINE
  8
0-2
  6
CONTINUOUS
 62
    3
 10
681.17668
 20
1268.7811
 11
684.64049
 21
1271.8027
  0
LINE
  8
0-2
  6
CONTINUOUS
 62
    3
 10
684.64049
 20
1271.8027
 11
687.92793
 21
1274.9997
  0
LINE
  8
0-2
  6
CONTINUOUS
 62
    3
 10
687.92793
 20
1274.9997
 11
691.1055
 21
1278.2992
  0
LINE
  8
0-2
  6
CONTINUOUS
 62
    3
 10
691.1055
 20
1278.2992
 11
694.24269
 21
1281.6292
  0
LINE
  8
0-2
  6
CONTINUOUS
 62
    3
 10
694.24269
 20
1281.6292
 11
697.40601
 21
1284.9144
  0
LINE
  8
0-2
  6
CONTINUOUS
 62
    3
 10
697.40601
 20
1284.9144
 11
700.66791
 21
1288.0846
  0
LINE
  8
0-2
  6
CONTINUOUS
 62
    3
 10
700.66791
 20
1288.0846
 11
704.09045
 21
1291.076
  0
LINE
  8
0-2
  6
CONTINUOUS
 62
    3
 10
704.09045
 20
1291.076
 11
707.66962
 21
1293.8868
  0
LINE
  8
0-2
  6
CONTINUOUS
 62
    3
 10
707.66962
 20
1293.8868
 11
711.37587
 21
1296.5595
  0
LINE
  8
0-2
  6
CONTINUOUS
 62
    3
 10
711.37587
 20
1296.5595
 11
715.17076
 21
1299.1282
  0
LINE
  8
0-2
  6
CONTINUOUS
 62
    3
 10
715.17076
 20
1299.1282
 11
719.02532
 21
1301.6325
  0
LINE
  8
0-2
  6
CONTINUOUS
 62
    3
 10
719.02532
 20
1301.6325
 11
721.75439
 21
1303.3766
  0
LINE
  8
0-2
  6
CONTINUOUS
 62
    3
 10
721.75439
 20
1303.3766
 11
726.01263
 21
1305.1429
  0
LINE
  8
0-2
  6
CONTINUOUS
 62
    3
 10
726.01263
 20
1305.1429
 11
730.29492
 21
1306.7918
  0
LINE
  8
0-2
  6
CONTINUOUS
 62
    3
 10
730.29492
 20
1306.7918
 11
734.62814
 21
1308.2075
  0
LINE
  8
0-2
  6
CONTINUOUS
 62
    3
 10
734.62814
 20
1308.2075
 11
739.03722
 21
1309.2744
  0
LINE
  8
0-2
  6
CONTINUOUS
 62
    3
 10
739.03722
 20
1309.2744
 11
743.5327
 21
1309.9276
  0
LINE
  8
0-2
  6
CONTINUOUS
 62
    3
 10
743.5327
 20
1309.9276
 11
748.09277
 21
1310.2147
  0
LINE
  8
0-2
  6
CONTINUOUS
 62
    3
 10
748.09277
 20
1310.2147
 11
752.69114
 21
1310.198
  0
LINE
  8
0-2
  6
CONTINUOUS
 62
    3
 10
752.69114
 20
1310.198
 11
757.30303
 21
1309.9392
  0
LINE
  8
0-2
  6
CONTINUOUS
 62
    3
 10
757.30303
 20
1309.9392
 11
761.90674
 21
1309.5023
  0
LINE
  8
0-2
  6
CONTINUOUS
 62
    3
 10
761.90674
 20
1309.5023
 11
766.47498
 21
1308.9406
  0
LINE
  8
0-2
  6
CONTINUOUS
 62
    3
 10
766.47498
 20
1308.9406
 11
771.00342
 21
1308.2416
  0
LINE
  8
0-2
  6
CONTINUOUS
 62
    3
 10
771.00342
 20
1308.2416
 11
775.49267
 21
1307.3911
  0
LINE
  8
0-2
  6
CONTINUOUS
 62
    3
 10
775.49267
 20
1307.3911
 11
779.93709
 21
1306.3591
  0
LINE
  8
0-2
  6
CONTINUOUS
 62
    3
 10
779.93709
 20
1306.3591
 11
784.33875
 21
1305.1287
  0
LINE
  8
0-2
  6
CONTINUOUS
 62
    3
 10
784.33875
 20
1305.1287
 11
788.69616
 21
1303.6715
  0
LINE
  8
0-2
  6
CONTINUOUS
 62
    3
 10
788.69616
 20
1303.6715
 11
792.99152
 21
1301.9673
  0
LINE
  8
0-2
  6
CONTINUOUS
 62
    3
 10
792.99152
 20
1301.9673
 11
797.18503
 21
1299.9972
  0
LINE
  8
0-2
  6
CONTINUOUS
 62
    3
 10
797.18503
 20
1299.9972
 11
801.21523
 21
1297.7488
  0
LINE
  8
0-2
  6
CONTINUOUS
 62
    3
 10
801.21523
 20
1297.7488
 11
805.02986
 21
1295.2016
  0
LINE
  8
0-2
  6
CONTINUOUS
 62
    3
 10
805.02986
 20
1295.2016
 11
808.5734
 21
1292.3363
  0
LINE
  8
0-2
  6
CONTINUOUS
 62
    3
 10
808.5734
 20
1292.3363
 11
811.79714
 21
1289.1447
  0
LINE
  8
0-2
  6
CONTINUOUS
 62
    3
 10
811.79714
 20
1289.1447
 11
814.74267
 21
1285.6738
  0
LINE
  8
0-2
  6
CONTINUOUS
 62
    3
 10
814.74267
 20
1285.6738
 11
817.48272
 21
1282.0007
  0
LINE
  8
0-2
  6
CONTINUOUS
 62
    3
 10
817.48272
 20
1282.0007
 11
820.09538
 21
1278.2027
  0
LINE
  8
0-2
  6
CONTINUOUS
 62
    3
 10
820.09538
 20
1278.2027
 11
821.61387
 21
1275.9344
  0
LINE
  8
0-2
  6
CONTINUOUS
 62
    3
 10
820.09538
 20
1278.2027
 11
822.13854
 21
1273.9723
  0
LINE
  8
0-2
  6
CONTINUOUS
 62
    3
 10
822.13854
 20
1273.9723
 11
824.07244
 21
1269.723
  0
LINE
  8
0-2
  6
CONTINUOUS
 62
    3
 10
824.07244
 20
1269.723
 11
825.79343
 21
1265.4441
  0
LINE
  8
0-2
  6
CONTINUOUS
 62
    3
 10
825.79343
 20
1265.4441
 11
827.19107
 21
1261.1118
  0
LINE
  8
0-2
  6
CONTINUOUS
 62
    3
 10
827.19107
 20
1261.1118
 11
828.15935
 21
1256.7147
  0
LINE
  8
0-2
  6
CONTINUOUS
 62
    3
 10
828.15935
 20
1256.7147
 11
828.59465
 21
1252.2347
  0
LINE
  8
0-2
  6
CONTINUOUS
 62
    3
 10
828.59465
 20
1252.2347
 11
828.46994
 21
1247.6909
  0
LINE
  8
0-2
  6
CONTINUOUS
 62
    3
 10
828.46994
 20
1247.6909
 11
827.86064
 21
1243.1269
  0
LINE
  8
0-2
  6
CONTINUOUS
 62
    3
 10
827.86064
 20
1243.1269
 11
826.84574
 21
1238.5955
  0
LINE
  8
0-2
  6
CONTINUOUS
 62
    3
 10
826.84574
 20
1238.5955
 11
825.49502
 21
1234.149
  0
LINE
  8
0-2
  6
CONTINUOUS
 62
    3
 10
825.49502
 20
1234.149
 11
823.83074
 21
1229.8483
  0
LINE
  8
0-2
  6
CONTINUOUS
 62
    3
 10
823.83074
 20
1229.8483
 11
821.80777
 21
1225.7544
  0
LINE
  8
0-2
  6
CONTINUOUS
 62
    3
 10
821.80777
 20
1225.7544
 11
819.37741
 21
1221.9308
  0
LINE
  8
0-2
  6
CONTINUOUS
 62
    3
 10
819.37741
 20
1221.9308
 11
816.54532
 21
1218.4002
  0
LINE
  8
0-2
  6
CONTINUOUS
 62
    3
 10
816.54532
 20
1218.4002
 11
813.39758
 21
1215.0967
  0
LINE
  8
0-2
  6
CONTINUOUS
 62
    3
 10
813.39758
 20
1215.0967
 11
810.0325
 21
1211.9521
  0
LINE
  8
0-2
  6
CONTINUOUS
 62
    3
 10
810.0325
 20
1211.9521
 11
806.54479
 21
1208.8987
  0
LINE
  8
0-2
  6
CONTINUOUS
 62
    3
 10
806.54479
 20
1208.8987
 11
805.60472
 21
1208.0908
  0
LINE
  8
0-2
  6
CONTINUOUS
 62
    3
 10
806.54479
 20
1208.8987
 11
802.5422
 21
1206.6549
  0
LINE
  8
0-2
  6
CONTINUOUS
 62
    3
 10
802.5422
 20
1206.6549
 11
798.52418
 21
1204.4521
  0
LINE
  8
0-2
  6
CONTINUOUS
 62
    3
 10
798.52418
 20
1204.4521
 11
794.47289
 21
1202.3297
  0
LINE
  8
0-2
  6
CONTINUOUS
 62
    3
 10
794.47289
 20
1202.3297
 11
790.36579
 21
1200.3276
  0
LINE
  8
0-2
  6
CONTINUOUS
 62
    3
 10
790.36579
 20
1200.3276
 11
786.19336
 21
1198.4854
  0
LINE
  8
0-2
  6
CONTINUOUS
 62
    3
 10
786.19336
 20
1198.4854
 11
781.93155
 21
1196.8427
  0
LINE
  8
0-2
  6
CONTINUOUS
 62
    3
 10
781.93155
 20
1196.8427
 11
777.57978
 21
1195.4228
  0
LINE
  8
0-2
  6
CONTINUOUS
 62
    3
 10
777.57978
 20
1195.4228
 11
773.15615
 21
1194.2313
  0
LINE
  8
0-2
  6
CONTINUOUS
 62
    3
 10
773.15615
 20
1194.2313
 11
768.67744
 21
1193.2659
  0
LINE
  8
0-2
  6
CONTINUOUS
 62
    3
 10
768.67744
 20
1193.2659
 11
764.15746
 21
1192.5276
  0
LINE
  8
0-2
  6
CONTINUOUS
 62
    3
 10
764.15746
 20
1192.5276
 11
759.61773
 21
1192.011
  0
LINE
  8
0-2
  6
CONTINUOUS
 62
    3
 10
759.61773
 20
1192.011
 11
755.06315
 21
1191.6767
  0
LINE
  8
0-2
  6
CONTINUOUS
 62
    3
 10
755.06315
 20
1191.6767
 11
750.4967
 21
1191.4816
  0
LINE
  8
0-2
  6
CONTINUOUS
 62
    3
 10
750.4967
 20
1191.4816
 11
745.92
 21
1191.3757
  0
LINE
  8
0-2
  6
CONTINUOUS
 62
    3
 10
745.92
 20
1191.3757
 11
741.95305
 21
1191.32
  0
LINE
  8
0-2
  6
CONTINUOUS
 62
    3
 10
690.81615
 20
1190.8996
 11
695.09636
 21
1189.1672
  0
LINE
  8
0-2
  6
CONTINUOUS
 62
    3
 10
695.09636
 20
1189.1672
 11
699.40181
 21
1187.4545
  0
LINE
  8
0-2
  6
CONTINUOUS
 62
    3
 10
699.40181
 20
1187.4545
 11
703.7475
 21
1185.8762
  0
LINE
  8
0-2
  6
CONTINUOUS
 62
    3
 10
703.7475
 20
1185.8762
 11
708.13476
 21
1184.5604
  0
LINE
  8
0-2
  6
CONTINUOUS
 62
    3
 10
708.13476
 20
1184.5604
 11
712.57561
 21
1183.6324
  0
LINE
  8
0-2
  6
CONTINUOUS
 62
    3
 10
712.57561
 20
1183.6324
 11
717.07985
 21
1183.2167
  0
LINE
  8
0-2
  6
CONTINUOUS
 62
    3
 10
717.07985
 20
1183.2167
 11
721.63651
 21
1183.2817
  0
LINE
  8
0-2
  6
CONTINUOUS
 62
    3
 10
721.63651
 20
1183.2817
 11
726.22656
 21
1183.6202
  0
LINE
  8
0-2
  6
CONTINUOUS
 62
    3
 10
726.22656
 20
1183.6202
 11
727.08884
 21
1183.6965
  0
LINE
  8
0-2
  6
CONTINUOUS
 62
    3
 10
726.22656
 20
1183.6202
 11
729.97944
 21
1184.4572
  0
LINE
  8
0-2
  6
CONTINUOUS
 62
    3
 10
729.97944
 20
1184.4572
 11
733.58191
 21
1185.6154
  0
LINE
  8
0-2
  6
CONTINUOUS
 62
    3
 10
733.58191
 20
1185.6154
 11
736.88687
 21
1187.4187
  0
LINE
  8
0-2
  6
CONTINUOUS
 62
    3
 10
736.88687
 20
1187.4187
 11
739.70456
 21
1190.006
  0
LINE
  8
0-2
  6
CONTINUOUS
 62
    3
 10
739.70456
 20
1190.006
 11
741.79389
 21
1193.2492
  0
LINE
  8
0-2
  6
CONTINUOUS
 62
    3
 10
741.79389
 20
1193.2492
 11
742.93157
 21
1196.9577
  0
LINE
  8
0-2
  6
CONTINUOUS
 62
    3
 10
742.93157
 20
1196.9577
 11
743.0156
 21
1200.7929
  0
LINE
  8
0-2
  6
CONTINUOUS
 62
    3
 10
743.0156
 20
1200.7929
 11
742.00071
 21
1204.3863
  0
LINE
  8
0-2
  6
CONTINUOUS
 62
    3
 10
742.00071
 20
1204.3863
 11
740.10408
 21
1207.6551
  0
LINE
  8
0-2
  6
CONTINUOUS
 62
    3
 10
740.10408
 20
1207.6551
 11
737.76117
 21
1210.7582
  0
LINE
  8
0-2
  6
CONTINUOUS
 62
    3
 10
649.82289
 20
1248.2919
 11
654.43566
 21
1247.5067
  0
LINE
  8
0-2
  6
CONTINUOUS
 62
    3
 10
654.43566
 20
1247.5067
 11
659.03314
 21
1246.8541
  0
LINE
  8
0-2
  6
CONTINUOUS
 62
    3
 10
659.03314
 20
1246.8541
 11
663.59692
 21
1246.4664
  0
LINE
  8
0-2
  6
CONTINUOUS
 62
    3
 10
663.59692
 20
1246.4664
 11
668.11141
 21
1246.4732
  0
LINE
  8
0-2
  6
CONTINUOUS
 62
    3
 10
668.11141
 20
1246.4732
 11
672.55984
 21
1247.0045
  0
LINE
  8
0-2
  6
CONTINUOUS
 62
    3
 10
672.55984
 20
1247.0045
 11
676.94279
 21
1248.0835
  0
LINE
  8
0-2
  6
CONTINUOUS
 62
    3
 10
676.94279
 20
1248.0835
 11
681.26992
 21
1249.5644
  0
LINE
  8
0-2
  6
CONTINUOUS
 62
    3
 10
681.26992
 20
1249.5644
 11
685.56201
 21
1251.3011
  0
LINE
  8
0-2
  6
CONTINUOUS
 62
    3
 10
685.56201
 20
1251.3011
 11
689.82738
 21
1253.1363
  0
LINE
  8
0-2
  6
CONTINUOUS
 62
    3
 10
689.82738
 20
1253.1363
 11
694.08799
 21
1254.9381
  0
LINE
  8
0-2
  6
CONTINUOUS
 62
    3
 10
694.08799
 20
1254.9381
 11
698.34416
 21
1256.6724
  0
LINE
  8
0-2
  6
CONTINUOUS
 62
    3
 10
698.34416
 20
1256.6724
 11
702.60017
 21
1258.355
  0
LINE
  8
0-2
  6
CONTINUOUS
 62
    3
 10
702.60017
 20
1258.355
 11
706.85143
 21
1259.9958
  0
LINE
  8
0-2
  6
CONTINUOUS
 62
    3
 10
706.85143
 20
1259.9958
 11
711.10255
 21
1261.6063
  0
LINE
  8
0-2
  6
CONTINUOUS
 62
    3
 10
711.10255
 20
1261.6063
 11
715.35485
 21
1263.2017
  0
LINE
  8
0-2
  6
CONTINUOUS
 62
    3
 10
715.35485
 20
1263.2017
 11
715.29547
 21
1259.2854
  0
LINE
  8
0-2
  6
CONTINUOUS
 62
    3
 10
715.29547
 20
1259.2854
 11
715.2392
 21
1255.3737
  0
LINE
  8
0-2
  6
CONTINUOUS
 62
    3
 10
715.2392
 20
1255.3737
 11
715.18278
 21
1251.4572
  0
LINE
  8
0-2
  6
CONTINUOUS
 62
    3
 10
715.18278
 20
1251.4572
 11
715.12384
 21
1247.5446
  0
LINE
  8
0-2
  6
CONTINUOUS
 62
    3
 10
715.12384
 20
1247.5446
 11
715.06802
 21
1243.6324
  0
LINE
  8
0-2
  6
CONTINUOUS
 62
    3
 10
715.06802
 20
1243.6324
 11
715.01131
 21
1239.7158
  0
LINE
  8
0-2
  6
CONTINUOUS
 62
    3
 10
715.01131
 20
1239.7158
 11
714.95237
 21
1235.8041
  0
LINE
  8
0-2
  6
CONTINUOUS
 62
    3
 10
714.95237
 20
1235.8041
 11
714.8961
 21
1231.8879
  0
LINE
  8
0-2
  6
CONTINUOUS
 62
    3
 10
714.8961
 20
1231.8879
 11
714.8379
 21
1227.9748
  0
LINE
  8
0-2
  6
CONTINUOUS
 62
    3
 10
714.8379
 20
1227.9748
 11
714.78089
 21
1224.0595
  0
LINE
  8
0-2
  6
CONTINUOUS
 62
    3
 10
737.76117
 20
1210.7582
 11
736.82555
 21
1211.583
  0
LINE
  8
0-2
  6
CONTINUOUS
 62
    3
 10
736.82555
 20
1211.583
 11
735.48047
 21
1212.5807
  0
LINE
  8
0-2
  6
CONTINUOUS
 62
    3
 10
735.48047
 20
1212.5807
 11
733.77967
 21
1213.722
  0
LINE
  8
0-2
  6
CONTINUOUS
 62
    3
 10
733.77967
 20
1213.722
 11
731.76857
 21
1214.9793
  0
LINE
  8
0-2
  6
CONTINUOUS
 62
    3
 10
731.76857
 20
1214.9793
 11
729.47629
 21
1216.3277
  0
LINE
  8
0-2
  6
CONTINUOUS
 62
    3
 10
729.47629
 20
1216.3277
 11
726.9432
 21
1217.7495
  0
LINE
  8
0-2
  6
CONTINUOUS
 62
    3
 10
726.9432
 20
1217.7495
 11
724.1938
 21
1219.2276
  0
LINE
  8
0-2
  6
CONTINUOUS
 62
    3
 10
724.1938
 20
1219.2276
 11
721.24872
 21
1220.7456
  0
LINE
  8
0-2
  6
CONTINUOUS
 62
    3
 10
721.24872
 20
1220.7456
 11
718.13454
 21
1222.2923
  0
LINE
  8
0-2
  6
CONTINUOUS
 62
    3
 10
718.13454
 20
1222.2923
 11
714.86819
 21
1223.8555
  0
LINE
  8
0-2
  6
CONTINUOUS
 62
    3
 10
714.86819
 20
1223.8555
 11
711.46198
 21
1225.4251
  0
LINE
  8
0-2
  6
CONTINUOUS
 62
    3
 10
711.46198
 20
1225.4251
 11
707.937
 21
1226.9968
  0
LINE
  8
0-2
  6
CONTINUOUS
 62
    3
 10
707.937
 20
1226.9968
 11
704.30335
 21
1228.5604
  0
LINE
  8
0-2
  6
CONTINUOUS
 62
    3
 10
704.30335
 20
1228.5604
 11
700.57898
 21
1230.1115
  0
LINE
  8
0-2
  6
CONTINUOUS
 62
    3
 10
700.57898
 20
1230.1115
 11
696.7737
 21
1231.6465
  0
LINE
  8
0-2
  6
CONTINUOUS
 62
    3
 10
696.7737
 20
1231.6465
 11
692.9031
 21
1233.1577
  0
LINE
  8
0-2
  6
CONTINUOUS
 62
    3
 10
692.9031
 20
1233.1577
 11
688.98098
 21
1234.6441
  0
LINE
  8
0-2
  6
CONTINUOUS
 62
    3
 10
688.98098
 20
1234.6441
 11
685.02323
 21
1236.1026
  0
LINE
  8
0-2
  6
CONTINUOUS
 62
    3
 10
685.02323
 20
1236.1026
 11
681.04648
 21
1237.5315
  0
LINE
  8
0-2
  6
CONTINUOUS
 62
    3
 10
681.04648
 20
1237.5315
 11
677.06572
 21
1238.9224
  0
LINE
  8
0-2
  6
CONTINUOUS
 62
    3
 10
677.06572
 20
1238.9224
 11
673.09668
 21
1240.2755
  0
LINE
  8
0-2
  6
CONTINUOUS
 62
    3
 10
673.09668
 20
1240.2755
 11
669.15912
 21
1241.5903
  0
LINE
  8
0-2
  6
CONTINUOUS
 62
    3
 10
669.15912
 20
1241.5903
 11
665.27471
 21
1242.8584
  0
LINE
  8
0-2
  6
CONTINUOUS
 62
    3
 10
665.27471
 20
1242.8584
 11
661.45771
 21
1244.0806
  0
LINE
  8
0-2
  6
CONTINUOUS
 62
    3
 10
661.45771
 20
1244.0806
 11
657.73319
 21
1245.2512
  0
LINE
  8
0-2
  6
CONTINUOUS
 62
    3
 10
657.73319
 20
1245.2512
 11
654.12047
 21
1246.365
  0
LINE
  8
0-2
  6
CONTINUOUS
 62
    3
 10
654.12047
 20
1246.365
 11
650.64003
 21
1247.4173
  0
LINE
  8
0-2
  6
CONTINUOUS
 62
    3
 10
650.64003
 20
1247.4173
 11
647.31014
 21
1248.4058
  0
LINE
  8
0-2
  6
CONTINUOUS
 62
    3
 10
647.31014
 20
1248.4058
 11
644.15231
 21
1249.3217
  0
LINE
  8
0-2
  6
CONTINUOUS
 62
    3
 10
715.35485
 20
1263.2017
 11
715.40904
 21
1263.2203
  0
LINE
  8
0-2
  6
CONTINUOUS
 62
    3
 10
653.11864
 20
1187.0754
 11
653.11864
 21
1178.0883
  0
LINE
  8
0-2
  6
CONTINUOUS
 62
    3
 10
653.11864
 20
1178.0883
 11
680.42917
 21
1178.0883
  0
LINE
  8
0-2
  6
CONTINUOUS
 62
    3
 10
680.42917
 20
1187.0754
 11
680.42917
 21
1178.0883
  0
LINE
  8
0-2
  6
CONTINUOUS
 62
    3
 10
653.11864
 20
1187.0754
 11
680.42917
 21
1187.0754
  0
LINE
  8
0-2
  6
CONTINUOUS
 62
    3
 10
640.46462
 20
1273.7205
 11
640.46462
 21
1244.2335
  0
LINE
  8
0-2
  6
CONTINUOUS
 62
    3
 10
644.76235
 20
1264.8795
 11
644.31621
 21
1264.6271
  0
LINE
  8
0-2
  6
CONTINUOUS
 62
    3
 10
644.31621
 20
1264.6271
 11
643.85939
 21
1264.362
  0
LINE
  8
0-2
  6
CONTINUOUS
 62
    3
 10
643.85939
 20
1264.362
 11
643.39737
 21
1264.0845
  0
LINE
  8
0-2
  6
CONTINUOUS
 62
    3
 10
643.39737
 20
1264.0845
 11
642.92526
 21
1263.7936
  0
LINE
  8
0-2
  6
CONTINUOUS
 62
    3
 10
642.92526
 20
1263.7936
 11
642.44364
 21
1263.4933
  0
LINE
  8
0-2
  6
CONTINUOUS
 62
    3
 10
642.44364
 20
1263.4933
 11
641.95401
 21
1263.1775
  0
LINE
  8
0-2
  6
CONTINUOUS
 62
    3
 10
641.95401
 20
1263.1775
 11
641.45591
 21
1262.8513
  0
LINE
  8
0-2
  6
CONTINUOUS
 62
    3
 10
641.45591
 20
1262.8513
 11
640.94801
 21
1262.5106
  0
LINE
  8
0-2
  6
CONTINUOUS
 62
    3
 10
640.94801
 20
1262.5106
 11
640.43329
 21
1262.1599
  0
LINE
  8
0-2
  6
CONTINUOUS
 62
    3
 10
643.23718
 20
1254.2079
 11
642.90625
 21
1254.1444
  0
LINE
  8
0-2
  6
CONTINUOUS
 62
    3
 10
642.90625
 20
1254.1444
 11
642.58008
 21
1254.0854
  0
LINE
  8
0-2
  6
CONTINUOUS
 62
    3
 10
642.58008
 20
1254.0854
 11
642.25954
 21
1254.0271
  0
LINE
  8
0-2
  6
CONTINUOUS
 62
    3
 10
642.25954
 20
1254.0271
 11
641.94243
 21
1253.9698
  0
LINE
  8
0-2
  6
CONTINUOUS
 62
    3
 10
641.94243
 20
1253.9698
 11
641.63199
 21
1253.9154
  0
LINE
  8
0-2
  6
CONTINUOUS
 62
    3
 10
641.63199
 20
1253.9154
 11
641.32452
 21
1253.8645
  0
LINE
  8
0-2
  6
CONTINUOUS
 62
    3
 10
641.32452
 20
1253.8645
 11
641.02269
 21
1253.8169
  0
LINE
  8
0-2
  6
CONTINUOUS
 62
    3
 10
641.02269
 20
1253.8169
 11
640.72458
 21
1253.7704
  0
LINE
  8
0-2
  6
CONTINUOUS
 62
    3
 10
640.72458
 20
1253.7704
 11
640.43329
 21
1253.7251
  0
LINE
  8
0-2
  6
CONTINUOUS
 62
    3
 10
649.82289
 20
1248.2919
 11
648.5657
 21
1248.5587
  0
LINE
  8
0-2
  6
CONTINUOUS
 62
    3
 10
648.5657
 20
1248.5587
 11
647.35928
 21
1248.8163
  0
LINE
  8
0-2
  6
CONTINUOUS
 62
    3
 10
647.35928
 20
1248.8163
 11
646.20824
 21
1249.0656
  0
LINE
  8
0-2
  6
CONTINUOUS
 62
    3
 10
646.20824
 20
1249.0656
 11
645.11094
 21
1249.3074
  0
LINE
  8
0-2
  6
CONTINUOUS
 62
    3
 10
645.11094
 20
1249.3074
 11
644.0668
 21
1249.5399
  0
LINE
  8
0-2
  6
CONTINUOUS
 62
    3
 10
644.0668
 20
1249.5399
 11
643.07803
 21
1249.7659
  0
LINE
  8
0-2
  6
CONTINUOUS
 62
    3
 10
643.07803
 20
1249.7659
 11
642.14211
 21
1249.9823
  0
LINE
  8
0-2
  6
CONTINUOUS
 62
    3
 10
642.14211
 20
1249.9823
 11
641.26083
 21
1250.1914
  0
LINE
  8
0-2
  6
CONTINUOUS
 62
    3
 10
641.26083
 20
1250.1914
 11
640.43329
 21
1250.3905
  0
LINE
  8
0-2
  6
CONTINUOUS
 62
    3
 10
644.15231
 20
1249.3217
 11
643.66015
 21
1249.4554
  0
LINE
  8
0-2
  6
CONTINUOUS
 62
    3
 10
643.66015
 20
1249.4554
 11
643.18819
 21
1249.5845
  0
LINE
  8
0-2
  6
CONTINUOUS
 62
    3
 10
643.18819
 20
1249.5845
 11
642.73656
 21
1249.7115
  0
LINE
  8
0-2
  6
CONTINUOUS
 62
    3
 10
642.73656
 20
1249.7115
 11
642.30616
 21
1249.8339
  0
LINE
  8
0-2
  6
CONTINUOUS
 62
    3
 10
642.30616
 20
1249.8339
 11
641.89774
 21
1249.9516
  0
LINE
  8
0-2
  6
CONTINUOUS
 62
    3
 10
641.89774
 20
1249.9516
 11
641.50757
 21
1250.0637
  0
LINE
  8
0-2
  6
CONTINUOUS
 62
    3
 10
641.50757
 20
1250.0637
 11
641.13879
 21
1250.1736
  0
LINE
  8
0-2
  6
CONTINUOUS
 62
    3
 10
641.13879
 20
1250.1736
 11
640.79153
 21
1250.2803
  0
LINE
  8
0-2
  6
CONTINUOUS
 62
    3
 10
640.79153
 20
1250.2803
 11
640.46462
 21
1250.3842
  0
LINE
  8
0-2
  6
CONTINUOUS
 62
    3
 10
636.4362
 20
1277.751
 11
630.00073
 21
1277.751
  0
LINE
  8
0-2
  6
CONTINUOUS
 62
    3
 10
636.4362
 20
1215.8379
 11
630.00073
 21
1215.8379
  0
LINE
  8
0-2
  6
CONTINUOUS
 62
    3
 10
633.3624
 20
1236.83
 11
635.6964
 21
1234.1951
  0
LINE
  8
0-2
  6
CONTINUOUS
 62
    3
 10
635.6964
 20
1234.1951
 11
638.26201
 21
1231.4579
  0
LINE
  8
0-2
  6
CONTINUOUS
 62
    3
 10
638.26201
 20
1231.4579
 11
641.02121
 21
1228.6502
  0
LINE
  8
0-2
  6
CONTINUOUS
 62
    3
 10
641.02121
 20
1228.6502
 11
643.93912
 21
1225.8012
  0
LINE
  8
0-2
  6
CONTINUOUS
 62
    3
 10
643.93912
 20
1225.8012
 11
646.98188
 21
1222.9382
  0
LINE
  8
0-2
  6
CONTINUOUS
 62
    3
 10
646.98188
 20
1222.9382
 11
650.11922
 21
1220.0862
  0
LINE
  8
0-2
  6
CONTINUOUS
 62
    3
 10
650.11922
 20
1220.0862
 11
653.32144
 21
1217.2677
  0
LINE
  8
0-2
  6
CONTINUOUS
 62
    3
 10
653.32144
 20
1217.2677
 11
656.56226
 21
1214.5032
  0
LINE
  8
0-2
  6
CONTINUOUS
 62
    3
 10
656.56226
 20
1214.5032
 11
659.81674
 21
1211.812
  0
LINE
  8
0-2
  6
CONTINUOUS
 62
    3
 10
659.81674
 20
1211.812
 11
663.06245
 21
1209.2103
  0
LINE
  8
0-2
  6
CONTINUOUS
 62
    3
 10
663.06245
 20
1209.2103
 11
666.27907
 21
1206.7128
  0
LINE
  8
0-2
  6
CONTINUOUS
 62
    3
 10
666.27907
 20
1206.7128
 11
669.44818
 21
1204.3309
  0
LINE
  8
0-2
  6
CONTINUOUS
 62
    3
 10
669.44818
 20
1204.3309
 11
672.5536
 21
1202.0758
  0
LINE
  8
0-2
  6
CONTINUOUS
 62
    3
 10
672.5536
 20
1202.0758
 11
675.58182
 21
1199.9544
  0
LINE
  8
0-2
  6
CONTINUOUS
 62
    3
 10
675.58182
 20
1199.9544
 11
678.52096
 21
1197.9728
  0
LINE
  8
0-2
  6
CONTINUOUS
 62
    3
 10
678.52096
 20
1197.9728
 11
681.36078
 21
1196.1352
  0
LINE
  8
0-2
  6
CONTINUOUS
 62
    3
 10
681.36078
 20
1196.1352
 11
684.09444
 21
1194.4424
  0
LINE
  8
0-2
  6
CONTINUOUS
 62
    3
 10
684.09444
 20
1194.4424
 11
686.71617
 21
1192.8945
  0
LINE
  8
0-2
  6
CONTINUOUS
 62
    3
 10
686.71617
 20
1192.8945
 11
689.22253
 21
1191.4882
  0
LINE
  8
0-2
  6
CONTINUOUS
 62
    3
 10
689.22253
 20
1191.4882
 11
689.40707
 21
1191.4074
  0
LINE
  8
0-2
  6
CONTINUOUS
 62
    3
 10
689.40707
 20
1191.4074
 11
689.58968
 21
1191.3307
  0
LINE
  8
0-2
  6
CONTINUOUS
 62
    3
 10
689.58968
 20
1191.3307
 11
689.77081
 21
1191.2574
  0
LINE
  8
0-2
  6
CONTINUOUS
 62
    3
 10
689.77081
 20
1191.2574
 11
689.94956
 21
1191.1885
  0
LINE
  8
0-2
  6
CONTINUOUS
 62
    3
 10
689.94956
 20
1191.1885
 11
690.12653
 21
1191.1232
  0
LINE
  8
0-2
  6
CONTINUOUS
 62
    3
 10
690.12653
 20
1191.1232
 11
690.30172
 21
1191.0615
  0
LINE
  8
0-2
  6
CONTINUOUS
 62
    3
 10
690.30172
 20
1191.0615
 11
690.47527
 21
1191.0034
  0
LINE
  8
0-2
  6
CONTINUOUS
 62
    3
 10
690.47527
 20
1191.0034
 11
690.64675
 21
1190.9501
  0
LINE
  8
0-2
  6
CONTINUOUS
 62
    3
 10
690.64675
 20
1190.9501
 11
690.81615
 21
1190.8996
  0
LINE
  8
0-2
  6
CONTINUOUS
 62
    3
 10
633.3624
 20
1236.83
 11
634.74237
 21
1237.5154
  0
LINE
  8
0-2
  6
CONTINUOUS
 62
    3
 10
634.74237
 20
1237.5154
 11
635.97433
 21
1238.2348
  0
LINE
  8
0-2
  6
CONTINUOUS
 62
    3
 10
635.97433
 20
1238.2348
 11
637.05871
 21
1238.9889
  0
LINE
  8
0-2
  6
CONTINUOUS
 62
    3
 10
637.05871
 20
1238.9889
 11
637.99566
 21
1239.7771
  0
LINE
  8
0-2
  6
CONTINUOUS
 62
    3
 10
637.99566
 20
1239.7771
 11
638.78475
 21
1240.6002
  0
LINE
  8
0-2
  6
CONTINUOUS
 62
    3
 10
638.78475
 20
1240.6002
 11
639.42626
 21
1241.4569
  0
LINE
  8
0-2
  6
CONTINUOUS
 62
    3
 10
639.42626
 20
1241.4569
 11
639.92005
 21
1242.3483
  0
LINE
  8
0-2
  6
CONTINUOUS
 62
    3
 10
639.92005
 20
1242.3483
 11
640.26627
 21
1243.2736
  0
LINE
  8
0-2
  6
CONTINUOUS
 62
    3
 10
640.26627
 20
1243.2736
 11
640.46462
 21
1244.2335
  0
LINE
  8
0-2
  6
CONTINUOUS
 62
    3
 10
640.4658
 20
1219.8683
 11
640.4658
 21
1229.2154
  0
LINE
  8
0-2
  6
CONTINUOUS
 62
    3
 10
692.79829
 20
1254.649
 11
684.86334
 21
1272.1382
  0
LINE
  8
0-2
  6
CONTINUOUS
 62
    3
 10
662.24843
 20
1159.652
 11
630.00073
 21
1159.652
  0
LINE
  8
0-2
  6
CONTINUOUS
 62
    3
 10
667.639
 20
1165.0425
 11
667.639
 21
1178.0883
  0
LINE
  8
0-2
  6
CONTINUOUS
 62
    3
 10
659.55321
 20
1154.8048
 11
630.00073
 21
1154.8048
  0
LINE
  8
0-2
  6
CONTINUOUS
 62
    3
 10
662.24843
 20
1157.5004
 11
662.24843
 21
1159.652
  0
LINE
  8
0-2
  6
CONTINUOUS
 62
    3
 10
667.639
 20
1204.425
 11
667.639
 21
1187.0754
  0
LINE
  8
0-2
  6
CONTINUOUS
 62
    3
 10
660.98411
 20
1211.08
 11
630.00073
 21
1211.08
  0
LINE
  8
0-2
  6
CONTINUOUS
 62
    3
 10
837.50099
 20
1315.3299
 11
837.50099
 21
1293.0801
  0
LINE
  8
0-2
  6
CONTINUOUS
 62
    3
 10
629.99999
 20
1328.3297
 11
837.50099
 21
1328.3297
  0
LINE
  8
0-2
  6
CONTINUOUS
 62
    3
 10
629.99999
 20
1315.3299
 11
837.50218
 21
1315.3299
  0
LINE
  8
0-2
  6
CONTINUOUS
 62
    3
 10
837.5001
 20
1276.5789
 11
955.00096
 21
1276.5789
  0
LINE
  8
0-2
  6
CONTINUOUS
 62
    3
 10
837.5001
 20
1263.5791
 11
955.00096
 21
1263.5791
  0
LINE
  8
0-2
  6
CONTINUOUS
 62
    3
 10
304.99991
 20
1228.3298
 11
629.99999
 21
1228.3298
  0
LINE
  8
0-2
  6
CONTINUOUS
 62
    3
 10
304.99991
 20
1241.3295
 11
629.99999
 21
1241.3295
  0
LINE
  8
0-2
  6
CONTINUOUS
 62
    3
 10
304.99991
 20
1263.5791
 11
629.99999
 21
1263.5791
  0
LINE
  8
0-2
  6
CONTINUOUS
 62
    3
 10
304.99991
 20
1276.5789
 11
629.99999
 21
1276.5789
  0
LINE
  8
0-2
  6
CONTINUOUS
 62
    3
 10
818.80375
 20
1280.0806
 11
837.50218
 21
1280.0806
  0
LINE
  8
0-2
  6
CONTINUOUS
 62
    3
 10
807.65322
 20
1293.0804
 11
837.50218
 21
1293.0804
  0
LINE
  8
0-2
  6
CONTINUOUS
 62
    3
 10
837.5001
 20
1280.0806
 11
837.5001
 21
1149.8291
  0
LINE
  8
0-2
  6
CONTINUOUS
 62
    3
 10
304.99991
 20
1388.3299
 11
629.64368
 21
1388.3299
  0
LINE
  8
0-2
  6
CONTINUOUS
 62
    3
 10
926.6503
 20
1230.4232
 11
926.6503
 21
1222.0528
  0
LINE
  8
0-2
  6
CONTINUOUS
 62
    3
 10
840.49997
 20
1225.33
 11
840.49997
 21
1163.3301
  0
LINE
  8
0-2
  6
CONTINUOUS
 62
    3
 10
832.58981
 20
1173.991
 11
846.02134
 21
1173.991
  0
LINE
  8
0-2
  6
CONTINUOUS
 62
    3
 10
948.0481
 20
1257.2501
 11
959.91541
 21
1257.2501
  0
LINE
  8
0-2
  6
CONTINUOUS
 62
    3
 10
840.50115
 20
1315.3299
 11
840.50115
 21
1305.6637
  0
LINE
  8
0-2
  6
CONTINUOUS
 62
    3
 10
832.31129
 20
1310.6609
 11
846.25829
 21
1310.6609
  0
LINE
  8
0-8
  6
CONTINUOUS
 62
    7
 10
1089.5036
 20
1078.3296
 11
1089.5036
 21
1228.3298
  0
LINE
  8
0-8
  6
CONTINUOUS
 62
    7
 10
982.70254
 20
1078.3296
 11
1089.5036
 21
1078.3296
  0
LINE
  8
0-8
  6
CONTINUOUS
 62
    7
 10
982.70254
 20
1228.3298
 11
1089.5036
 21
1228.3298
  0
LINE
  8
0-8
  6
CONTINUOUS
 62
    7
 10
1089.5036
 20
1228.3298
 11
1089.5036
 21
1388.3299
  0
LINE
  8
0-8
  6
CONTINUOUS
 62
    7
 10
982.70254
 20
1388.3299
 11
1089.5036
 21
1388.3299
  0
LINE
  8
0-8
  6
CONTINUOUS
 62
    7
 10
1089.5036
 20
1388.3299
 11
1089.5036
 21
1463.3299
  0
LINE
  8
0-8
  6
CONTINUOUS
 62
    7
 10
982.70254
 20
1463.3299
 11
1089.5036
 21
1463.3299
  0
LINE
  8
0-2
  6
CONTINUOUS
 62
    2
 10
629.99999
 20
1328.3297
 11
815.94701
 21
1420.4189
  0
LINE
  8
0-8
  6
CONTINUOUS
 62
    7
 10
911.48798
 20
1078.3296
 11
911.48798
 21
1328.3297
  0
LINE
  8
0-8
  6
CONTINUOUS
 62
    7
 10
856.1632
 20
1078.3296
 11
911.48798
 21
1078.3296
  0
LINE
  8
0-8
  6
CONTINUOUS
 62
    7
 10
856.1632
 20
1328.3297
 11
911.48798
 21
1328.3297
  0
LINE
  8
0-2
  6
CONTINUOUS
 62
    3
 10
723.98624
 20
1388.3299
 11
955.00007
 21
1388.3299
  0
LINE
  8
0-2
  6
CENTER2
 62
    7
 10
629.99999
 20
1463.3299
 11
629.99999
 21
1078.3296
  0
LINE
  8
0-8
  6
CENTER2
 62
    7
 10
629.99999
 20
1512.0637
 11
629.99999
 21
925.99743
  0
LINE
  8
0-2
  6
CONTINUOUS
 62
    3
 10
795.99895
 20
1425.0223
 11
629.99999
 21
1340.4415
  0
LINE
  8
0-2
  6
CONTINUOUS
 62
    3
 10
795.9988
 20
1425.0223
 11
629.99999
 21
1425.0223
  0
LINE
  8
0-2
  6
CONTINUOUS
 62
    3
 10
955.00096
 20
1225.33
 11
837.5001
 21
1225.33
  0
LINE
  8
0-2
  6
CONTINUOUS
 62
    3
 10
914.83495
 20
1231.3297
 11
840.50115
 21
1305.6637
  0
LINE
  8
0-2
  6
CONTINUOUS
 62
    3
 10
913.5923
 20
1228.3298
 11
837.50099
 21
1304.4211
  0
LINE
  8
0-2
  6
CONTINUOUS
 62
    3
 10
955.00096
 20
1241.3295
 11
955.00096
 21
1225.33
  0
LINE
  8
0-2
  6
CONTINUOUS
 62
    3
 10
952.0011
 20
1231.3297
 11
914.83495
 21
1231.3297
  0
LINE
  8
0-2
  6
CONTINUOUS
 62
    3
 10
837.5001
 20
1228.3298
 11
952.0011
 21
1228.3298
  0
LINE
  8
0-2
  6
CONTINUOUS
 62
    3
 10
952.0011
 20
1263.5791
 11
952.0011
 21
1228.3298
  0
LINE
  8
0-2
  6
CONTINUOUS
 62
    3
 10
837.5001
 20
1241.3295
 11
952.0011
 21
1241.3295
  0
ARC
  8
0-2
  6
CONTINUOUS
 62
    3
 10
422.49988
 20
1084.8294
 40
6.4996993
 50
90
 51
270
  0
ARC
  8
0-2
  6
CONTINUOUS
 62
    3
 10
422.49988
 20
1143.3292
 40
6.4996993
 50
90
 51
270
  0
ARC
  8
0-2
  6
CONTINUOUS
 62
    3
 10
837.5001
 20
1084.8294
 40
6.4996993
 50
270
 51
90
  0
ARC
  8
0-2
  6
CONTINUOUS
 62
    3
 10
837.5001
 20
1143.3292
 40
6.4996993
 50
270
 51
90
  0
ARC
  8
0-2
  6
CONTINUOUS
 62
    3
 10
304.99991
 20
1270.0792
 40
6.4996993
 50
90
 51
270
  0
ARC
  8
0-2
  6
CONTINUOUS
 62
    3
 10
304.99991
 20
1234.8296
 40
6.4996993
 50
90
 51
270
  0
ARC
  8
0-2
  6
CONTINUOUS
 62
    3
 10
955.00007
 20
1270.0792
 40
6.4996993
 50
270
 51
90
  0
ARC
  8
0-2
  6
CONTINUOUS
 62
    3
 10
955.00007
 20
1234.8296
 40
6.4996993
 50
270
 51
90
  0
ARC
  8
0-2
  6
CONTINUOUS
 62
    3
 10
636.4362
 20
1219.8683
 40
4.0294089
 50
270
 51
0
  0
ARC
  8
0-2
  6
CONTINUOUS
 62
    3
 10
636.4362
 20
1273.7205
 40
4.0294089
 50
0
 51
90
  0
ARC
  8
0-2
  6
CONTINUOUS
 62
    3
 10
662.24843
 20
1165.0425
 40
5.3905493
 50
270
 51
0
  0
ARC
  8
0-2
  6
CONTINUOUS
 62
    3
 10
659.55321
 20
1157.5004
 40
2.6952746
 50
270
 51
0
  0
ARC
  8
0-2
  6
CONTINUOUS
 62
    3
 10
837.50099
 20
1321.83
 40
6.4996993
 50
270
 51
90
  0
ARC
  8
0-2
  6
CONTINUOUS
 62
    3
 10
837.50099
 20
1286.5803
 40
6.4996993
 50
270
 51
90
  0
ARC
  8
0-2
  6
DASHED1
 62
    2
 10
629.99999
 20
1328.3297
 40
207.50107
 50
0
 51
26.346649
  0
TEXT
  8
0-d
 10
152.99987
 20
94.49993
 40
15
 41
1
 50
0.0000305
  1
図
  0
TEXT
  8
0-d
 10
152.99987
 20
58.499969
 40
15
 41
1
 50
0
  1
番
  0
TEXT
  8
0-d
 10
393.00025
 20
94.49993
 40
15
 41
1
 50
0.0000305
  1
承
  0
TEXT
  8
0-d
 10
393.00025
 20
58.499969
 40
15
 41
1
 50
0
  1
認
  0
TEXT
  8
0-d
 10
612.00015
 20
142.49994
 40
15
 41
1
 50
0
  1
尺
  0
TEXT
  8
0-d
 10
612.00015
 20
118.49985
 40
15
 41
1
 50
0.0000762
  1
度
  0
TEXT
  8
0-d
 10
513.00005
 20
94.49993
 40
15
 41
1
 50
0.0000305
  1
製
  0
TEXT
  8
0-d
 10
513.00005
 20
58.499969
 40
15
 41
1
 50
0
  1
図
  0
TEXT
  8
0-d
 10
933.00002
 20
142.49994
 40
15
 41
1
 50
0
  1
日
  0
TEXT
  8
0-d
 10
933.00002
 20
118.49985
 40
15
 41
1
 50
0.0000762
  1
付
  0
TEXT
  8
0-d
 10
666.85578
 20
98.089351
 40
12
 41
1
 50
0
  1
株式
  0
TEXT
  8
0-d
 10
666.85578
 20
85.111074
 40
12
 41
1
 50
0.0000152
  1
会社
  0
TEXT
  8
0-d
 10
704.5348
 20
85.948271
 40
24
 41
1
 50
0
  1
スズキベンチレーター
  0
TEXT
  8
0-d
 10
742.75089
 20
56.414506
 40
12
 41
1
 50
0
  1
TEL(054)296-7000  FAX(054)296-7001
  0
TEXT
  8
0-8
 10
612.3751
 20
1568.2741
 40
18
 41
1
 50
0
  1
650
  0
TEXT
  8
0-8
 10
600.99994
 20
1021.7901
 40
18
 41
1
 50
0
  1
415φ
  0
TEXT
  8
0-8
 10
130.5005
 20
1244.3283
 40
18
 41
1
 50
90
  1
385
  0
TEXT
  8
0-8
 10
1083.5035
 20
1140.5797
 40
18
 41
1
 50
90
  1
150
  0
TEXT
  8
0-8
 10
1083.5035
 20
1295.5799
 40
18
 41
1
 50
90
  1
160
  0
TEXT
  8
0-8
 10
1083.5035
 20
1417.5798
 40
18
 41
1
 50
90
  1
75
  0
TEXT
  8
0-8
 10
905.48796
 20
1190.5797
 40
18
 41
1
 50
90
  1
250
  0
TEXT
  8
0-d
 10
152.99998
 20
1663.6207
 40
30
 41
1
 50
0
  1
ＳＴ－４０　直付型（ダンパー付）断面
  0
TEXT
  8
0-d
 10
167.61649
 20
125.44811
 40
24
 41
1
 50
0
  1
ＳＴ－４０　直付型（ダンパー付）
  0
TEXT
  8
0-d
 10
650.60938
 20
126.06037
 40
24
 41
1
 50
0.0000152
  1
１／６
  0
TEXT
  8
0-d
 10
185.07555
 20
84.181281
 40
18
 41
1
 50
0
  1
40-B04a
  0
TEXT
  8
0-d
 10
741.40752
 20
71.187554
 40
12
 41
1
 50
0
  1
〒421-2114　静岡市葵区安倍口新田１５２番地
  0
POINT
  8
0-8
 62
    2
 10
150.00049
 20
1078.3294
  0
POINT
  8
0-8
 62
    2
 10
150.00049
 20
1463.3299
  0
POINT
  8
0-8
 62
    2
 10
304.99991
 20
1548.7733
  0
POINT
  8
0-8
 62
    2
 10
955.00096
 20
1548.7733
  0
POINT
  8
0-8
 62
    2
 10
422.49988
 20
1008.7901
  0
POINT
  8
0-8
 62
    2
 10
837.5001
 20
1008.7901
  0
POINT
  8
0-8
 62
    2
 10
1089.5036
 20
1078.3296
  0
POINT
  8
0-8
 62
    2
 10
1089.5036
 20
1228.3298
  0
POINT
  8
0-8
 62
    2
 10
1089.5036
 20
1388.3299
  0
POINT
  8
0-8
 62
    2
 10
1089.5036
 20
1463.3299
  0
POINT
  8
0-8
 62
    2
 10
911.48798
 20
1078.3296
  0
POINT
  8
0-8
 62
    2
 10
911.48798
 20
1328.3297
  0
ENDSEC
  0
EOF
