  0
SECTION
  2
HEADER
  9
$EXTMIN
 10
0
 20
0
  9
$EXTMAX
 10
4200
 20
2970
  0
ENDSEC
  0
SECTION
  2
TABLES
  0
TABLE
  2
LTYPE
 70
     9
  0
LTYPE
  2
CONTINUOUS
 70
    64
  3
実線
 72
    65
 73
     0
 40
0.0
  0
LTYPE
  2
DASHED1
 70
    64
  3
--  --  --  --  --  --  --  --  
 72
    65
 73
     2
 40
2.5
 49
1.25
 49
-1.25
  0
LTYPE
  2
DASHED2
 70
    64
  3
----    ----    ----    ----    
 72
    65
 73
     2
 40
5.0
 49
2.5
 49
-2.5
  0
LTYPE
  2
DASHED3
 70
    64
  3
------  ------  ------  ------  
 72
    65
 73
     2
 40
5.0
 49
3.75
 49
-1.25
  0
LTYPE
  2
CENTER1
 70
    64
  3
----- - ----- - ----- - ----- - 
 72
    65
 73
     4
 40
10.0
 49
6.25
 49
-1.25
 49
1.25
 49
-1.25
  0
LTYPE
  2
CENTER2
 70
    64
  3
----------  --  ----------  --  
 72
    65
 73
     4
 40
20.0
 49
12.5
 49
-2.5
 49
2.5
 49
-2.5
  0
LTYPE
  2
PHANTOM1
 70
    64
  3
--- - - --- - - --- - - --- - - 
 72
    65
 73
     6
 40
10.0
 49
3.25
 49
-1.25
 49
1.25
 49
-1.25
 49
1.25
 49
-1.25
  0
LTYPE
  2
PHANTOM2
 70
    64
  3
--------  -  -  --------  -  -  
 72
    65
 73
     6
 40
20.0
 49
10.0
 49
-2.5
 49
1.25
 49
-2.5
 49
1.25
 49
-2.5
  0
LTYPE
  2
DOT
 70
    64
  3
-   -   -   -   -   -   -   -   
 72
    65
 73
     2
 40
2.5
 49
0.625
 49
-1.875
  0
ENDTAB
  0
TABLE
  2
STYLE
 70
    1
  0
STYLE
  2
STANDARD
 70
    64
 40
0.0
 41
1.0
 42
0.0
 50
0.0
 71
     0
  3
TXT
  4
BIGFONT
  0
ENDTAB
  0
TABLE
  2
LAYER
 70
    5
  0
LAYER
  2
1-1
 70
   64
 62
    7
  6
CONTINUOUS
  0
LAYER
  2
1-2
 70
   64
 62
    7
  6
CONTINUOUS
  0
LAYER
  2
1-8
 70
   64
 62
    7
  6
CONTINUOUS
  0
LAYER
  2
1-d
 70
   64
 62
    7
  6
CONTINUOUS
  0
LAYER
  2
ADD_LINE
 70
   64
 62
    7
  6
CONTINUOUS
  0
ENDTAB
  0
ENDSEC
  0
SECTION
  2
ENTITIES
  0
LINE
  8
1-d
  6
CONTINUOUS
 62
    7
 10
250.00003
 20
2757.7013
 11
1850.0001
 21
2757.7013
  0
LINE
  8
1-d
  6
CONTINUOUS
 62
    7
 10
250.00003
 20
2767.7014
 11
1850.0001
 21
2767.7014
  0
LINE
  8
1-8
  6
CONTINUOUS
 62
    7
 10
624.99999
 20
2599.807
 11
1475.0013
 21
2599.807
  0
LINE
  8
1-8
  6
CONTINUOUS
 62
    7
 10
616.66671
 20
1247.9057
 11
1483.3333
 21
1247.9057
  0
LINE
  8
1-2
  6
CONTINUOUS
 62
    3
 10
625.0011
 20
1879.3669
 11
1475.0025
 21
1879.3669
  0
LINE
  8
1-2
  6
CONTINUOUS
 62
    3
 10
625.0011
 20
1896.0332
 11
1475.0025
 21
1896.0332
  0
LINE
  8
1-2
  6
CONTINUOUS
 62
    3
 10
624.99999
 20
1796.0327
 11
1475.0013
 21
1796.0327
  0
LINE
  8
1-2
  6
CONTINUOUS
 62
    3
 10
625.0011
 20
1879.3669
 11
624.99999
 21
1796.0325
  0
LINE
  8
1-2
  6
CONTINUOUS
 62
    3
 10
787.4988
 20
1554.3674
 11
1312.5
 21
1554.3671
  0
LINE
  8
1-2
  6
CONTINUOUS
 62
    3
 10
787.4988
 20
1571.0337
 11
1312.5
 21
1571.0334
  0
LINE
  8
1-2
  6
CONTINUOUS
 62
    3
 10
787.50004
 20
1521.033
 11
1312.5013
 21
1521.033
  0
LINE
  8
1-2
  6
CONTINUOUS
 62
    3
 10
787.4988
 20
1554.3674
 11
787.50004
 21
1521.0325
  0
LINE
  8
1-2
  6
CONTINUOUS
 62
    3
 10
1312.4988
 20
1554.3671
 11
1312.5
 21
1521.0325
  0
LINE
  8
1-2
  6
CONTINUOUS
 62
    3
 10
787.50004
 20
1696.0331
 11
787.4988
 21
1571.0337
  0
LINE
  8
1-2
  6
CONTINUOUS
 62
    3
 10
1312.5
 20
1696.0331
 11
1312.4988
 21
1571.0334
  0
LINE
  8
1-2
  6
CONTINUOUS
 62
    3
 10
1312.4988
 20
1554.3671
 11
1312.5
 21
1521.0325
  0
LINE
  8
1-2
  6
CONTINUOUS
 62
    3
 10
1475.0013
 20
1879.3669
 11
1475.0001
 21
1796.0325
  0
LINE
  8
1-2
  6
CONTINUOUS
 62
    3
 10
624.99999
 20
1779.3664
 11
1475.0013
 21
1779.3664
  0
LINE
  8
1-2
  6
CONTINUOUS
 62
    3
 10
624.99986
 20
2229.3668
 11
1475.0013
 21
2229.3668
  0
LINE
  8
1-2
  6
CONTINUOUS
 62
    3
 10
624.99986
 20
2246.0334
 11
1475.0013
 21
2246.0334
  0
LINE
  8
1-2
  6
CONTINUOUS
 62
    3
 10
624.99986
 20
2146.033
 11
1475.0013
 21
2146.033
  0
LINE
  8
1-2
  6
CONTINUOUS
 62
    3
 10
624.99986
 20
2229.3668
 11
624.99986
 21
2146.0328
  0
LINE
  8
1-2
  6
CONTINUOUS
 62
    3
 10
1475.0001
 20
2229.3668
 11
1475.0001
 21
2146.0328
  0
LINE
  8
1-2
  6
CONTINUOUS
 62
    3
 10
624.99986
 20
2129.3667
 11
1475.0013
 21
2129.3667
  0
LINE
  8
1-8
  6
CONTINUOUS
 62
    7
 10
497.7199
 20
1504.3662
 11
350.00036
 21
1504.3662
  0
LINE
  8
1-8
  6
CONTINUOUS
 62
    7
 10
568.55178
 20
2454.3671
 11
350.00036
 21
2454.3671
  0
LINE
  8
1-8
  6
CONTINUOUS
 62
    7
 10
1475.0013
 20
2378.6982
 11
1475.0013
 21
2599.807
  0
LINE
  8
1-2
  6
CONTINUOUS
 62
    3
 10
624.99999
 20
1779.3664
 11
708.33327
 21
1696.0331
  0
LINE
  8
1-2
  6
CONTINUOUS
 62
    3
 10
1050
 20
2454.3671
 11
1266.507
 21
2329.3666
  0
LINE
  8
1-2
  6
CONTINUOUS
 62
    3
 10
1050
 20
2454.3671
 11
841.108
 21
2333.7632
  0
LINE
  8
1-2
  6
CONTINUOUS
 62
    3
 10
1475.0001
 20
2246.0334
 11
1391.667
 21
2329.3666
  0
LINE
  8
1-2
  6
CONTINUOUS
 62
    3
 10
624.99986
 20
2246.0334
 11
708.33302
 21
2329.3666
  0
LINE
  8
1-2
  6
CONTINUOUS
 62
    3
 10
975.96061
 20
2322.4787
 11
976.64651
 21
2322.6623
  0
LINE
  8
1-2
  6
CONTINUOUS
 62
    3
 10
976.64651
 20
2322.6623
 11
977.29084
 21
2322.9122
  0
LINE
  8
1-2
  6
CONTINUOUS
 62
    3
 10
977.29084
 20
2322.9122
 11
977.89398
 21
2323.2232
  0
LINE
  8
1-2
  6
CONTINUOUS
 62
    3
 10
977.89398
 20
2323.2232
 11
978.4569
 21
2323.5909
  0
LINE
  8
1-2
  6
CONTINUOUS
 62
    3
 10
978.4569
 20
2323.5909
 11
978.98024
 21
2324.0115
  0
LINE
  8
1-2
  6
CONTINUOUS
 62
    3
 10
978.98024
 20
2324.0115
 11
979.46485
 21
2324.4792
  0
LINE
  8
1-2
  6
CONTINUOUS
 62
    3
 10
979.46485
 20
2324.4792
 11
979.91148
 21
2324.9894
  0
LINE
  8
1-2
  6
CONTINUOUS
 62
    3
 10
979.91148
 20
2324.9894
 11
980.32099
 21
2325.5382
  0
LINE
  8
1-2
  6
CONTINUOUS
 62
    3
 10
980.32099
 20
2325.5382
 11
980.69376
 21
2326.1197
  0
LINE
  8
1-2
  6
CONTINUOUS
 62
    3
 10
980.69376
 20
2326.1197
 11
981.03102
 21
2326.7307
  0
LINE
  8
1-2
  6
CONTINUOUS
 62
    3
 10
981.03102
 20
2326.7307
 11
981.33314
 21
2327.3653
  0
LINE
  8
1-2
  6
CONTINUOUS
 62
    3
 10
981.33314
 20
2327.3653
 11
981.60112
 21
2328.0193
  0
LINE
  8
1-2
  6
CONTINUOUS
 62
    3
 10
981.60112
 20
2328.0193
 11
981.83557
 21
2328.6882
  0
LINE
  8
1-2
  6
CONTINUOUS
 62
    3
 10
981.83557
 20
2328.6882
 11
982.03736
 21
2329.3666
  0
LINE
  8
1-2
  6
CONTINUOUS
 62
    3
 10
972.19321
 20
2322.442
 11
971.40004
 21
2322.6969
  0
LINE
  8
1-2
  6
CONTINUOUS
 62
    3
 10
971.40004
 20
2322.6969
 11
970.65587
 21
2322.998
  0
LINE
  8
1-2
  6
CONTINUOUS
 62
    3
 10
970.65587
 20
2322.998
 11
969.95994
 21
2323.3432
  0
LINE
  8
1-2
  6
CONTINUOUS
 62
    3
 10
969.95994
 20
2323.3432
 11
969.31215
 21
2323.7295
  0
LINE
  8
1-2
  6
CONTINUOUS
 62
    3
 10
969.31215
 20
2323.7295
 11
968.71173
 21
2324.1551
  0
LINE
  8
1-2
  6
CONTINUOUS
 62
    3
 10
968.71173
 20
2324.1551
 11
968.15809
 21
2324.6178
  0
LINE
  8
1-2
  6
CONTINUOUS
 62
    3
 10
968.15809
 20
2324.6178
 11
967.65096
 21
2325.1151
  0
LINE
  8
1-2
  6
CONTINUOUS
 62
    3
 10
967.65096
 20
2325.1151
 11
967.18961
 21
2325.6446
  0
LINE
  8
1-2
  6
CONTINUOUS
 62
    3
 10
967.18961
 20
2325.6446
 11
966.77341
 21
2326.2039
  0
LINE
  8
1-2
  6
CONTINUOUS
 62
    3
 10
966.77341
 20
2326.2039
 11
966.40213
 21
2326.7903
  0
LINE
  8
1-2
  6
CONTINUOUS
 62
    3
 10
966.40213
 20
2326.7903
 11
966.07501
 21
2327.4027
  0
LINE
  8
1-2
  6
CONTINUOUS
 62
    3
 10
966.07501
 20
2327.4027
 11
965.79169
 21
2328.0374
  0
LINE
  8
1-2
  6
CONTINUOUS
 62
    3
 10
965.79169
 20
2328.0374
 11
965.55155
 21
2328.6931
  0
LINE
  8
1-2
  6
CONTINUOUS
 62
    3
 10
965.55155
 20
2328.6931
 11
965.35397
 21
2329.3666
  0
LINE
  8
1-2
  6
CONTINUOUS
 62
    3
 10
932.63909
 20
2329.3666
 11
931.87079
 21
2328.2477
  0
LINE
  8
1-2
  6
CONTINUOUS
 62
    3
 10
931.87079
 20
2328.2477
 11
931.09358
 21
2327.253
  0
LINE
  8
1-2
  6
CONTINUOUS
 62
    3
 10
931.09358
 20
2327.253
 11
930.31055
 21
2326.3746
  0
LINE
  8
1-2
  6
CONTINUOUS
 62
    3
 10
930.31055
 20
2326.3746
 11
929.52469
 21
2325.606
  0
LINE
  8
1-2
  6
CONTINUOUS
 62
    3
 10
929.52469
 20
2325.606
 11
928.73919
 21
2324.9399
  0
LINE
  8
1-2
  6
CONTINUOUS
 62
    3
 10
928.73919
 20
2324.9399
 11
927.95691
 21
2324.3703
  0
LINE
  8
1-2
  6
CONTINUOUS
 62
    3
 10
927.95691
 20
2324.3703
 11
927.18094
 21
2323.8901
  0
LINE
  8
1-2
  6
CONTINUOUS
 62
    3
 10
927.18094
 20
2323.8901
 11
926.41437
 21
2323.4917
  0
LINE
  8
1-2
  6
CONTINUOUS
 62
    3
 10
926.41437
 20
2323.4917
 11
925.66029
 21
2323.1683
  0
LINE
  8
1-2
  6
CONTINUOUS
 62
    3
 10
925.66029
 20
2323.1683
 11
924.92169
 21
2322.9139
  0
LINE
  8
1-2
  6
CONTINUOUS
 62
    3
 10
924.92169
 20
2322.9139
 11
924.20164
 21
2322.7209
  0
LINE
  8
1-2
  6
CONTINUOUS
 62
    3
 10
924.20164
 20
2322.7209
 11
923.50336
 21
2322.5823
  0
LINE
  8
1-2
  6
CONTINUOUS
 62
    3
 10
923.50336
 20
2322.5823
 11
922.82958
 21
2322.4915
  0
LINE
  8
1-2
  6
CONTINUOUS
 62
    3
 10
922.82958
 20
2322.4915
 11
922.18364
 21
2322.442
  0
LINE
  8
1-2
  6
CONTINUOUS
 62
    3
 10
916.68615
 20
2329.3666
 11
916.70916
 21
2328.562
  0
LINE
  8
1-2
  6
CONTINUOUS
 62
    3
 10
916.70916
 20
2328.562
 11
916.77869
 21
2327.8182
  0
LINE
  8
1-2
  6
CONTINUOUS
 62
    3
 10
916.77869
 20
2327.8182
 11
916.89709
 21
2327.1328
  0
LINE
  8
1-2
  6
CONTINUOUS
 62
    3
 10
916.89709
 20
2327.1328
 11
917.06733
 21
2326.5008
  0
LINE
  8
1-2
  6
CONTINUOUS
 62
    3
 10
917.06733
 20
2326.5008
 11
917.292
 21
2325.9205
  0
LINE
  8
1-2
  6
CONTINUOUS
 62
    3
 10
917.292
 20
2325.9205
 11
917.57334
 21
2325.3883
  0
LINE
  8
1-2
  6
CONTINUOUS
 62
    3
 10
917.57334
 20
2325.3883
 11
917.91419
 21
2324.8999
  0
LINE
  8
1-2
  6
CONTINUOUS
 62
    3
 10
917.91419
 20
2324.8999
 11
918.31715
 21
2324.4525
  0
LINE
  8
1-2
  6
CONTINUOUS
 62
    3
 10
918.31715
 20
2324.4525
 11
918.78468
 21
2324.043
  0
LINE
  8
1-2
  6
CONTINUOUS
 62
    3
 10
918.78468
 20
2324.043
 11
919.31952
 21
2323.6676
  0
LINE
  8
1-2
  6
CONTINUOUS
 62
    3
 10
919.31952
 20
2323.6676
 11
919.92439
 21
2323.3234
  0
LINE
  8
1-2
  6
CONTINUOUS
 62
    3
 10
919.92439
 20
2323.3234
 11
920.60151
 21
2323.0062
  0
LINE
  8
1-2
  6
CONTINUOUS
 62
    3
 10
920.60151
 20
2323.0062
 11
921.35385
 21
2322.7135
  0
LINE
  8
1-2
  6
CONTINUOUS
 62
    3
 10
921.35385
 20
2322.7135
 11
922.18364
 21
2322.442
  0
LINE
  8
1-2
  6
CONTINUOUS
 62
    3
 10
870.90409
 20
2329.3666
 11
871.29591
 21
2328.4219
  0
LINE
  8
1-2
  6
CONTINUOUS
 62
    3
 10
871.29591
 20
2328.4219
 11
871.70393
 21
2327.564
  0
LINE
  8
1-2
  6
CONTINUOUS
 62
    3
 10
871.70393
 20
2327.564
 11
872.12792
 21
2326.7903
  0
LINE
  8
1-2
  6
CONTINUOUS
 62
    3
 10
872.12792
 20
2326.7903
 11
872.56738
 21
2326.096
  0
LINE
  8
1-2
  6
CONTINUOUS
 62
    3
 10
872.56738
 20
2326.096
 11
873.0218
 21
2325.4769
  0
LINE
  8
1-2
  6
CONTINUOUS
 62
    3
 10
873.0218
 20
2325.4769
 11
873.49095
 21
2324.9288
  0
LINE
  8
1-2
  6
CONTINUOUS
 62
    3
 10
873.49095
 20
2324.9288
 11
873.9742
 21
2324.447
  0
LINE
  8
1-2
  6
CONTINUOUS
 62
    3
 10
873.9742
 20
2324.447
 11
874.47143
 21
2324.0281
  0
LINE
  8
1-2
  6
CONTINUOUS
 62
    3
 10
874.47143
 20
2324.0281
 11
874.98189
 21
2323.6669
  0
LINE
  8
1-2
  6
CONTINUOUS
 62
    3
 10
874.98189
 20
2323.6669
 11
875.50548
 21
2323.3605
  0
LINE
  8
1-2
  6
CONTINUOUS
 62
    3
 10
875.50548
 20
2323.3605
 11
876.04168
 21
2323.1034
  0
LINE
  8
1-2
  6
CONTINUOUS
 62
    3
 10
876.04168
 20
2323.1034
 11
876.59025
 21
2322.8924
  0
LINE
  8
1-2
  6
CONTINUOUS
 62
    3
 10
876.59025
 20
2322.8924
 11
877.15033
 21
2322.7224
  0
LINE
  8
1-2
  6
CONTINUOUS
 62
    3
 10
877.15033
 20
2322.7224
 11
877.72204
 21
2322.5898
  0
LINE
  8
1-2
  6
CONTINUOUS
 62
    3
 10
878.97904
 20
2322.5898
 11
879.57512
 21
2322.7026
  0
LINE
  8
1-2
  6
CONTINUOUS
 62
    3
 10
879.57512
 20
2322.7026
 11
880.1665
 21
2322.8832
  0
LINE
  8
1-2
  6
CONTINUOUS
 62
    3
 10
880.1665
 20
2322.8832
 11
880.75293
 21
2323.1299
  0
LINE
  8
1-2
  6
CONTINUOUS
 62
    3
 10
880.75293
 20
2323.1299
 11
881.33479
 21
2323.4437
  0
LINE
  8
1-2
  6
CONTINUOUS
 62
    3
 10
881.33479
 20
2323.4437
 11
881.91145
 21
2323.8245
  0
LINE
  8
1-2
  6
CONTINUOUS
 62
    3
 10
881.91145
 20
2323.8245
 11
882.48353
 21
2324.2714
  0
LINE
  8
1-2
  6
CONTINUOUS
 62
    3
 10
882.48353
 20
2324.2714
 11
883.05066
 21
2324.786
  0
LINE
  8
1-2
  6
CONTINUOUS
 62
    3
 10
883.05066
 20
2324.786
 11
883.61309
 21
2325.3675
  0
LINE
  8
1-2
  6
CONTINUOUS
 62
    3
 10
883.61309
 20
2325.3675
 11
884.17057
 21
2326.0151
  0
LINE
  8
1-2
  6
CONTINUOUS
 62
    3
 10
828.99891
 20
2329.3666
 11
829.11236
 21
2328.6461
  0
LINE
  8
1-2
  6
CONTINUOUS
 62
    3
 10
829.11236
 20
2328.6461
 11
829.2732
 21
2327.9755
  0
LINE
  8
1-2
  6
CONTINUOUS
 62
    3
 10
829.2732
 20
2327.9755
 11
829.47796
 21
2327.3525
  0
LINE
  8
1-2
  6
CONTINUOUS
 62
    3
 10
829.47796
 20
2327.3525
 11
829.72267
 21
2326.7754
  0
LINE
  8
1-2
  6
CONTINUOUS
 62
    3
 10
829.72267
 20
2326.7754
 11
830.00389
 21
2326.242
  0
LINE
  8
1-2
  6
CONTINUOUS
 62
    3
 10
830.00389
 20
2326.242
 11
830.31826
 21
2325.7503
  0
LINE
  8
1-2
  6
CONTINUOUS
 62
    3
 10
830.31826
 20
2325.7503
 11
830.66257
 21
2325.2992
  0
LINE
  8
1-2
  6
CONTINUOUS
 62
    3
 10
830.66257
 20
2325.2992
 11
831.03398
 21
2324.8867
  0
LINE
  8
1-2
  6
CONTINUOUS
 62
    3
 10
831.03398
 20
2324.8867
 11
831.42976
 21
2324.5114
  0
LINE
  8
1-2
  6
CONTINUOUS
 62
    3
 10
831.42976
 20
2324.5114
 11
831.84694
 21
2324.1724
  0
LINE
  8
1-2
  6
CONTINUOUS
 62
    3
 10
831.84694
 20
2324.1724
 11
832.28355
 21
2323.8685
  0
LINE
  8
1-2
  6
CONTINUOUS
 62
    3
 10
832.28355
 20
2323.8685
 11
832.73711
 21
2323.5983
  0
LINE
  8
1-2
  6
CONTINUOUS
 62
    3
 10
832.73711
 20
2323.5983
 11
833.20564
 21
2323.3608
  0
LINE
  8
1-2
  6
CONTINUOUS
 62
    3
 10
833.20564
 20
2323.3608
 11
833.68728
 21
2323.1554
  0
LINE
  8
1-2
  6
CONTINUOUS
 62
    3
 10
833.68728
 20
2323.1554
 11
834.18043
 21
2322.9815
  0
LINE
  8
1-2
  6
CONTINUOUS
 62
    3
 10
834.18043
 20
2322.9815
 11
834.68372
 21
2322.8379
  0
LINE
  8
1-2
  6
CONTINUOUS
 62
    3
 10
834.68372
 20
2322.8379
 11
835.19542
 21
2322.7254
  0
LINE
  8
1-2
  6
CONTINUOUS
 62
    3
 10
835.19542
 20
2322.7254
 11
835.71492
 21
2322.643
  0
LINE
  8
1-2
  6
CONTINUOUS
 62
    3
 10
835.71492
 20
2322.643
 11
836.2411
 21
2322.5898
  0
LINE
  8
1-2
  6
CONTINUOUS
 62
    3
 10
836.37386
 20
2322.5959
 11
836.67017
 21
2322.6251
  0
LINE
  8
1-2
  6
CONTINUOUS
 62
    3
 10
836.67017
 20
2322.6251
 11
836.9614
 21
2322.6672
  0
LINE
  8
1-2
  6
CONTINUOUS
 62
    3
 10
836.9614
 20
2322.6672
 11
837.24732
 21
2322.7224
  0
LINE
  8
1-2
  6
CONTINUOUS
 62
    3
 10
837.24732
 20
2322.7224
 11
837.52829
 21
2322.7902
  0
LINE
  8
1-2
  6
CONTINUOUS
 62
    3
 10
837.52829
 20
2322.7902
 11
837.80418
 21
2322.8701
  0
LINE
  8
1-2
  6
CONTINUOUS
 62
    3
 10
837.80418
 20
2322.8701
 11
838.07501
 21
2322.9634
  0
LINE
  8
1-2
  6
CONTINUOUS
 62
    3
 10
838.07501
 20
2322.9634
 11
838.34063
 21
2323.0693
  0
LINE
  8
1-2
  6
CONTINUOUS
 62
    3
 10
838.34063
 20
2323.0693
 11
838.60119
 21
2323.1881
  0
LINE
  8
1-2
  6
CONTINUOUS
 62
    3
 10
838.60119
 20
2323.1881
 11
838.85654
 21
2323.3197
  0
LINE
  8
1-2
  6
CONTINUOUS
 62
    3
 10
716.6345
 20
2329.3666
 11
716.73595
 21
2328.609
  0
LINE
  8
1-2
  6
CONTINUOUS
 62
    3
 10
716.73595
 20
2328.609
 11
716.8431
 21
2327.9161
  0
LINE
  8
1-2
  6
CONTINUOUS
 62
    3
 10
716.8431
 20
2327.9161
 11
716.95642
 21
2327.2894
  0
LINE
  8
1-2
  6
CONTINUOUS
 62
    3
 10
716.95642
 20
2327.2894
 11
717.07556
 21
2326.7272
  0
LINE
  8
1-2
  6
CONTINUOUS
 62
    3
 10
717.07556
 20
2326.7272
 11
717.20052
 21
2326.2311
  0
LINE
  8
1-2
  6
CONTINUOUS
 62
    3
 10
717.20052
 20
2326.2311
 11
717.33142
 21
2325.8003
  0
LINE
  8
1-2
  6
CONTINUOUS
 62
    3
 10
717.33142
 20
2325.8003
 11
717.46813
 21
2325.4343
  0
LINE
  8
1-2
  6
CONTINUOUS
 62
    3
 10
717.46813
 20
2325.4343
 11
717.61078
 21
2325.1347
  0
LINE
  8
1-2
  6
CONTINUOUS
 62
    3
 10
717.61078
 20
2325.1347
 11
717.75924
 21
2324.8999
  0
LINE
  8
1-2
  6
CONTINUOUS
 62
    3
 10
735.08077
 20
2329.3666
 11
735.13694
 21
2328.7666
  0
LINE
  8
1-2
  6
CONTINUOUS
 62
    3
 10
735.13694
 20
2328.7666
 11
735.22973
 21
2328.1992
  0
LINE
  8
1-2
  6
CONTINUOUS
 62
    3
 10
735.22973
 20
2328.1992
 11
735.35494
 21
2327.6643
  0
LINE
  8
1-2
  6
CONTINUOUS
 62
    3
 10
735.35494
 20
2327.6643
 11
735.50934
 21
2327.1624
  0
LINE
  8
1-2
  6
CONTINUOUS
 62
    3
 10
735.50934
 20
2327.1624
 11
735.68935
 21
2326.6935
  0
LINE
  8
1-2
  6
CONTINUOUS
 62
    3
 10
735.68935
 20
2326.6935
 11
735.89151
 21
2326.2583
  0
LINE
  8
1-2
  6
CONTINUOUS
 62
    3
 10
735.89151
 20
2326.2583
 11
736.11185
 21
2325.856
  0
LINE
  8
1-2
  6
CONTINUOUS
 62
    3
 10
736.11185
 20
2325.856
 11
736.34692
 21
2325.4875
  0
LINE
  8
1-2
  6
CONTINUOUS
 62
    3
 10
736.34692
 20
2325.4875
 11
736.59312
 21
2325.1522
  0
LINE
  8
1-2
  6
CONTINUOUS
 62
    3
 10
736.59312
 20
2325.1522
 11
736.84687
 21
2324.8516
  0
LINE
  8
1-2
  6
CONTINUOUS
 62
    3
 10
736.84687
 20
2324.8516
 11
737.10458
 21
2324.5854
  0
LINE
  8
1-2
  6
CONTINUOUS
 62
    3
 10
737.10458
 20
2324.5854
 11
737.36266
 21
2324.3528
  0
LINE
  8
1-2
  6
CONTINUOUS
 62
    3
 10
737.36266
 20
2324.3528
 11
737.61753
 21
2324.1548
  0
LINE
  8
1-2
  6
CONTINUOUS
 62
    3
 10
737.61753
 20
2324.1548
 11
737.86558
 21
2323.9915
  0
LINE
  8
1-2
  6
CONTINUOUS
 62
    3
 10
760.34426
 20
2329.3666
 11
760.51177
 21
2328.6986
  0
LINE
  8
1-2
  6
CONTINUOUS
 62
    3
 10
760.51177
 20
2328.6986
 11
760.71579
 21
2328.0733
  0
LINE
  8
1-2
  6
CONTINUOUS
 62
    3
 10
760.71579
 20
2328.0733
 11
760.95469
 21
2327.4898
  0
LINE
  8
1-2
  6
CONTINUOUS
 62
    3
 10
760.95469
 20
2327.4898
 11
761.227
 21
2326.9487
  0
LINE
  8
1-2
  6
CONTINUOUS
 62
    3
 10
761.227
 20
2326.9487
 11
761.53135
 21
2326.4486
  0
LINE
  8
1-2
  6
CONTINUOUS
 62
    3
 10
761.53135
 20
2326.4486
 11
761.86613
 21
2325.9896
  0
LINE
  8
1-2
  6
CONTINUOUS
 62
    3
 10
761.86613
 20
2325.9896
 11
762.23012
 21
2325.5721
  0
LINE
  8
1-2
  6
CONTINUOUS
 62
    3
 10
762.23012
 20
2325.5721
 11
762.62169
 21
2325.1943
  0
LINE
  8
1-2
  6
CONTINUOUS
 62
    3
 10
762.62169
 20
2325.1943
 11
763.03937
 21
2324.8578
  0
LINE
  8
1-2
  6
CONTINUOUS
 62
    3
 10
763.03937
 20
2324.8578
 11
763.48179
 21
2324.5601
  0
LINE
  8
1-2
  6
CONTINUOUS
 62
    3
 10
763.48179
 20
2324.5601
 11
763.94747
 21
2324.3028
  0
LINE
  8
1-2
  6
CONTINUOUS
 62
    3
 10
763.94747
 20
2324.3028
 11
764.43493
 21
2324.0843
  0
LINE
  8
1-2
  6
CONTINUOUS
 62
    3
 10
764.43493
 20
2324.0843
 11
764.94255
 21
2323.9051
  0
LINE
  8
1-2
  6
CONTINUOUS
 62
    3
 10
764.94255
 20
2323.9051
 11
765.46923
 21
2323.7641
  0
LINE
  8
1-2
  6
CONTINUOUS
 62
    3
 10
791.86364
 20
2329.3666
 11
792.11701
 21
2328.6669
  0
LINE
  8
1-2
  6
CONTINUOUS
 62
    3
 10
792.11701
 20
2328.6669
 11
792.4137
 21
2328.0176
  0
LINE
  8
1-2
  6
CONTINUOUS
 62
    3
 10
792.4137
 20
2328.0176
 11
792.75021
 21
2327.42
  0
LINE
  8
1-2
  6
CONTINUOUS
 62
    3
 10
792.75021
 20
2327.42
 11
793.12311
 21
2326.8737
  0
LINE
  8
1-2
  6
CONTINUOUS
 62
    3
 10
793.12311
 20
2326.8737
 11
793.52841
 21
2326.3793
  0
LINE
  8
1-2
  6
CONTINUOUS
 62
    3
 10
793.52841
 20
2326.3793
 11
793.96254
 21
2325.9359
  0
LINE
  8
1-2
  6
CONTINUOUS
 62
    3
 10
793.96254
 20
2325.9359
 11
794.42167
 21
2325.5432
  0
LINE
  8
1-2
  6
CONTINUOUS
 62
    3
 10
794.42167
 20
2325.5432
 11
794.9017
 21
2325.2015
  0
LINE
  8
1-2
  6
CONTINUOUS
 62
    3
 10
794.9017
 20
2325.2015
 11
795.39893
 21
2324.909
  0
LINE
  8
1-2
  6
CONTINUOUS
 62
    3
 10
795.39893
 20
2324.909
 11
795.90878
 21
2324.666
  0
LINE
  8
1-2
  6
CONTINUOUS
 62
    3
 10
795.90878
 20
2324.666
 11
796.42742
 21
2324.471
  0
LINE
  8
1-2
  6
CONTINUOUS
 62
    3
 10
796.42742
 20
2324.471
 11
796.95013
 21
2324.3218
  0
LINE
  8
1-2
  6
CONTINUOUS
 62
    3
 10
796.95013
 20
2324.3218
 11
797.4726
 21
2324.2187
  0
LINE
  8
1-2
  6
CONTINUOUS
 62
    3
 10
797.4726
 20
2324.2187
 11
797.99049
 21
2324.1593
  0
LINE
  8
1-2
  6
CONTINUOUS
 62
    3
 10
797.99049
 20
2324.1593
 11
798.49886
 21
2324.1412
  0
LINE
  8
1-2
  6
CONTINUOUS
 62
    3
 10
798.49886
 20
2324.1412
 11
798.99312
 21
2324.1635
  0
LINE
  8
1-2
  6
CONTINUOUS
 62
    3
 10
798.99312
 20
2324.1635
 11
799.4687
 21
2324.2229
  0
LINE
  8
1-2
  6
CONTINUOUS
 62
    3
 10
799.4687
 20
2324.2229
 11
799.92028
 21
2324.3176
  0
LINE
  8
1-2
  6
CONTINUOUS
 62
    3
 10
799.92028
 20
2324.3176
 11
800.3429
 21
2324.4456
  0
LINE
  8
1-2
  6
CONTINUOUS
 62
    3
 10
716.6345
 20
2329.3666
 11
708.33302
 21
2329.3666
  0
LINE
  8
1-2
  6
CONTINUOUS
 62
    3
 10
635.32577
 20
2246.0334
 11
716.6345
 21
2329.3666
  0
LINE
  8
1-2
  6
CONTINUOUS
 62
    3
 10
721.99813
 20
2329.3666
 11
641.99749
 21
2246.0334
  0
LINE
  8
1-2
  6
CONTINUOUS
 62
    3
 10
658.27124
 20
2246.0334
 11
735.08077
 21
2329.3666
  0
LINE
  8
1-2
  6
CONTINUOUS
 62
    3
 10
735.08077
 20
2329.3666
 11
721.99813
 21
2329.3666
  0
LINE
  8
1-2
  6
CONTINUOUS
 62
    3
 10
742.7686
 20
2329.3666
 11
667.83392
 21
2246.0334
  0
LINE
  8
1-2
  6
CONTINUOUS
 62
    3
 10
760.34426
 20
2329.3666
 11
742.7686
 21
2329.3666
  0
LINE
  8
1-2
  6
CONTINUOUS
 62
    3
 10
689.69647
 20
2246.0334
 11
760.34426
 21
2329.3666
  0
LINE
  8
1-2
  6
CONTINUOUS
 62
    3
 10
770.18989
 20
2329.3666
 11
701.94338
 21
2246.0334
  0
LINE
  8
1-2
  6
CONTINUOUS
 62
    3
 10
791.87774
 20
2329.3666
 11
770.18989
 21
2329.3666
  0
LINE
  8
1-2
  6
CONTINUOUS
 62
    3
 10
728.92113
 20
2246.0334
 11
791.87774
 21
2329.3666
  0
LINE
  8
1-2
  6
CONTINUOUS
 62
    3
 10
803.668
 20
2329.3666
 11
743.58701
 21
2246.0334
  0
LINE
  8
1-2
  6
CONTINUOUS
 62
    3
 10
828.99891
 20
2329.3666
 11
803.668
 21
2329.3666
  0
LINE
  8
1-2
  6
CONTINUOUS
 62
    3
 10
775.09625
 20
2246.0334
 11
828.99891
 21
2329.3666
  0
LINE
  8
1-2
  6
CONTINUOUS
 62
    3
 10
842.47869
 20
2329.3666
 11
791.86364
 21
2246.0334
  0
LINE
  8
1-2
  6
CONTINUOUS
 62
    3
 10
870.90409
 20
2329.3666
 11
842.47869
 21
2329.3666
  0
LINE
  8
1-2
  6
CONTINUOUS
 62
    3
 10
827.22217
 20
2246.0334
 11
870.90409
 21
2329.3666
  0
LINE
  8
1-2
  6
CONTINUOUS
 62
    3
 10
885.78141
 20
2329.3666
 11
845.72807
 21
2246.0334
  0
LINE
  8
1-2
  6
CONTINUOUS
 62
    3
 10
916.68615
 20
2329.3666
 11
885.78141
 21
2329.3666
  0
LINE
  8
1-2
  6
CONTINUOUS
 62
    3
 10
884.17057
 20
2246.0334
 11
916.68615
 21
2329.3666
  0
LINE
  8
1-2
  6
CONTINUOUS
 62
    3
 10
904.01426
 20
2246.0334
 11
932.63909
 21
2329.3666
  0
LINE
  8
1-2
  6
CONTINUOUS
 62
    3
 10
965.35397
 20
2329.3666
 11
932.63909
 21
2329.3666
  0
LINE
  8
1-2
  6
CONTINUOUS
 62
    3
 10
965.35397
 20
2329.3666
 11
944.70858
 21
2246.0334
  0
LINE
  8
1-2
  6
CONTINUOUS
 62
    3
 10
965.46087
 20
2246.0334
 11
982.03736
 21
2329.3666
  0
LINE
  8
1-2
  6
CONTINUOUS
 62
    3
 10
1015.8543
 20
2329.3666
 11
982.03736
 21
2329.3666
  0
LINE
  8
1-2
  6
CONTINUOUS
 62
    3
 10
1015.8543
 20
2329.3666
 11
1007.526
 21
2246.0334
  0
LINE
  8
1-2
  6
CONTINUOUS
 62
    3
 10
1032.9065
 20
2329.3666
 11
1028.7374
 21
2246.0334
  0
LINE
  8
1-2
  6
CONTINUOUS
 62
    3
 10
1050
 20
2329.3666
 11
1032.9065
 21
2329.3666
  0
LINE
  8
1-2
  6
CONTINUOUS
 62
    3
 10
1475.0001
 20
2246.0334
 11
1391.667
 21
2329.3666
  0
LINE
  8
1-2
  6
CONTINUOUS
 62
    3
 10
1124.0393
 20
2322.4787
 11
1123.3535
 21
2322.6623
  0
LINE
  8
1-2
  6
CONTINUOUS
 62
    3
 10
1123.3535
 20
2322.6623
 11
1122.7092
 21
2322.9122
  0
LINE
  8
1-2
  6
CONTINUOUS
 62
    3
 10
1122.7092
 20
2322.9122
 11
1122.1061
 21
2323.2232
  0
LINE
  8
1-2
  6
CONTINUOUS
 62
    3
 10
1122.1061
 20
2323.2232
 11
1121.5431
 21
2323.5909
  0
LINE
  8
1-2
  6
CONTINUOUS
 62
    3
 10
1121.5431
 20
2323.5909
 11
1121.0198
 21
2324.0115
  0
LINE
  8
1-2
  6
CONTINUOUS
 62
    3
 10
1121.0198
 20
2324.0115
 11
1120.5352
 21
2324.4792
  0
LINE
  8
1-2
  6
CONTINUOUS
 62
    3
 10
1120.5352
 20
2324.4792
 11
1120.0886
 21
2324.9894
  0
LINE
  8
1-2
  6
CONTINUOUS
 62
    3
 10
1120.0886
 20
2324.9894
 11
1119.6791
 21
2325.5382
  0
LINE
  8
1-2
  6
CONTINUOUS
 62
    3
 10
1119.6791
 20
2325.5382
 11
1119.3063
 21
2326.1197
  0
LINE
  8
1-2
  6
CONTINUOUS
 62
    3
 10
1119.3063
 20
2326.1197
 11
1118.9689
 21
2326.7307
  0
LINE
  8
1-2
  6
CONTINUOUS
 62
    3
 10
1118.9689
 20
2326.7307
 11
1118.667
 21
2327.3653
  0
LINE
  8
1-2
  6
CONTINUOUS
 62
    3
 10
1118.667
 20
2327.3653
 11
1118.3989
 21
2328.0193
  0
LINE
  8
1-2
  6
CONTINUOUS
 62
    3
 10
1118.3989
 20
2328.0193
 11
1118.1644
 21
2328.6882
  0
LINE
  8
1-2
  6
CONTINUOUS
 62
    3
 10
1118.1644
 20
2328.6882
 11
1117.9627
 21
2329.3666
  0
LINE
  8
1-2
  6
CONTINUOUS
 62
    3
 10
1127.8068
 20
2322.442
 11
1128.6001
 21
2322.6969
  0
LINE
  8
1-2
  6
CONTINUOUS
 62
    3
 10
1128.6001
 20
2322.6969
 11
1129.3441
 21
2322.998
  0
LINE
  8
1-2
  6
CONTINUOUS
 62
    3
 10
1129.3441
 20
2322.998
 11
1130.0402
 21
2323.3432
  0
LINE
  8
1-2
  6
CONTINUOUS
 62
    3
 10
1130.0402
 20
2323.3432
 11
1130.6879
 21
2323.7295
  0
LINE
  8
1-2
  6
CONTINUOUS
 62
    3
 10
1130.6879
 20
2323.7295
 11
1131.2881
 21
2324.1551
  0
LINE
  8
1-2
  6
CONTINUOUS
 62
    3
 10
1131.2881
 20
2324.1551
 11
1131.842
 21
2324.6178
  0
LINE
  8
1-2
  6
CONTINUOUS
 62
    3
 10
1131.842
 20
2324.6178
 11
1132.3492
 21
2325.1151
  0
LINE
  8
1-2
  6
CONTINUOUS
 62
    3
 10
1132.3492
 20
2325.1151
 11
1132.8103
 21
2325.6446
  0
LINE
  8
1-2
  6
CONTINUOUS
 62
    3
 10
1132.8103
 20
2325.6446
 11
1133.2266
 21
2326.2039
  0
LINE
  8
1-2
  6
CONTINUOUS
 62
    3
 10
1133.2266
 20
2326.2039
 11
1133.5979
 21
2326.7903
  0
LINE
  8
1-2
  6
CONTINUOUS
 62
    3
 10
1133.5979
 20
2326.7903
 11
1133.925
 21
2327.4027
  0
LINE
  8
1-2
  6
CONTINUOUS
 62
    3
 10
1133.925
 20
2327.4027
 11
1134.2084
 21
2328.0374
  0
LINE
  8
1-2
  6
CONTINUOUS
 62
    3
 10
1134.2084
 20
2328.0374
 11
1134.4484
 21
2328.6931
  0
LINE
  8
1-2
  6
CONTINUOUS
 62
    3
 10
1134.4484
 20
2328.6931
 11
1134.6458
 21
2329.3666
  0
LINE
  8
1-2
  6
CONTINUOUS
 62
    3
 10
1167.361
 20
2329.3666
 11
1168.1293
 21
2328.2477
  0
LINE
  8
1-2
  6
CONTINUOUS
 62
    3
 10
1168.1293
 20
2328.2477
 11
1168.9064
 21
2327.253
  0
LINE
  8
1-2
  6
CONTINUOUS
 62
    3
 10
1168.9064
 20
2327.253
 11
1169.6895
 21
2326.3746
  0
LINE
  8
1-2
  6
CONTINUOUS
 62
    3
 10
1169.6895
 20
2326.3746
 11
1170.4751
 21
2325.606
  0
LINE
  8
1-2
  6
CONTINUOUS
 62
    3
 10
1170.4751
 20
2325.606
 11
1171.2607
 21
2324.9399
  0
LINE
  8
1-2
  6
CONTINUOUS
 62
    3
 10
1171.2607
 20
2324.9399
 11
1172.0431
 21
2324.3703
  0
LINE
  8
1-2
  6
CONTINUOUS
 62
    3
 10
1172.0431
 20
2324.3703
 11
1172.8192
 21
2323.8901
  0
LINE
  8
1-2
  6
CONTINUOUS
 62
    3
 10
1172.8192
 20
2323.8901
 11
1173.5857
 21
2323.4917
  0
LINE
  8
1-2
  6
CONTINUOUS
 62
    3
 10
1173.5857
 20
2323.4917
 11
1174.3398
 21
2323.1683
  0
LINE
  8
1-2
  6
CONTINUOUS
 62
    3
 10
1174.3398
 20
2323.1683
 11
1175.0784
 21
2322.9139
  0
LINE
  8
1-2
  6
CONTINUOUS
 62
    3
 10
1175.0784
 20
2322.9139
 11
1175.7984
 21
2322.7209
  0
LINE
  8
1-2
  6
CONTINUOUS
 62
    3
 10
1175.7984
 20
2322.7209
 11
1176.4966
 21
2322.5823
  0
LINE
  8
1-2
  6
CONTINUOUS
 62
    3
 10
1176.4966
 20
2322.5823
 11
1177.1705
 21
2322.4915
  0
LINE
  8
1-2
  6
CONTINUOUS
 62
    3
 10
1177.1705
 20
2322.4915
 11
1177.8163
 21
2322.442
  0
LINE
  8
1-2
  6
CONTINUOUS
 62
    3
 10
1183.314
 20
2329.3666
 11
1183.2909
 21
2328.562
  0
LINE
  8
1-2
  6
CONTINUOUS
 62
    3
 10
1183.2909
 20
2328.562
 11
1183.2212
 21
2327.8182
  0
LINE
  8
1-2
  6
CONTINUOUS
 62
    3
 10
1183.2212
 20
2327.8182
 11
1183.1028
 21
2327.1328
  0
LINE
  8
1-2
  6
CONTINUOUS
 62
    3
 10
1183.1028
 20
2327.1328
 11
1182.9325
 21
2326.5008
  0
LINE
  8
1-2
  6
CONTINUOUS
 62
    3
 10
1182.9325
 20
2326.5008
 11
1182.7082
 21
2325.9205
  0
LINE
  8
1-2
  6
CONTINUOUS
 62
    3
 10
1182.7082
 20
2325.9205
 11
1182.4267
 21
2325.3883
  0
LINE
  8
1-2
  6
CONTINUOUS
 62
    3
 10
1182.4267
 20
2325.3883
 11
1182.0859
 21
2324.8999
  0
LINE
  8
1-2
  6
CONTINUOUS
 62
    3
 10
1182.0859
 20
2324.8999
 11
1181.6829
 21
2324.4525
  0
LINE
  8
1-2
  6
CONTINUOUS
 62
    3
 10
1181.6829
 20
2324.4525
 11
1181.2152
 21
2324.043
  0
LINE
  8
1-2
  6
CONTINUOUS
 62
    3
 10
1181.2152
 20
2324.043
 11
1180.6804
 21
2323.6676
  0
LINE
  8
1-2
  6
CONTINUOUS
 62
    3
 10
1180.6804
 20
2323.6676
 11
1180.0757
 21
2323.3234
  0
LINE
  8
1-2
  6
CONTINUOUS
 62
    3
 10
1180.0757
 20
2323.3234
 11
1179.3987
 21
2323.0062
  0
LINE
  8
1-2
  6
CONTINUOUS
 62
    3
 10
1179.3987
 20
2323.0062
 11
1178.6461
 21
2322.7135
  0
LINE
  8
1-2
  6
CONTINUOUS
 62
    3
 10
1178.6461
 20
2322.7135
 11
1177.8163
 21
2322.442
  0
LINE
  8
1-2
  6
CONTINUOUS
 62
    3
 10
1229.096
 20
2329.3666
 11
1228.7039
 21
2328.4219
  0
LINE
  8
1-2
  6
CONTINUOUS
 62
    3
 10
1228.7039
 20
2328.4219
 11
1228.2961
 21
2327.564
  0
LINE
  8
1-2
  6
CONTINUOUS
 62
    3
 10
1228.2961
 20
2327.564
 11
1227.8721
 21
2326.7903
  0
LINE
  8
1-2
  6
CONTINUOUS
 62
    3
 10
1227.8721
 20
2326.7903
 11
1227.4326
 21
2326.096
  0
LINE
  8
1-2
  6
CONTINUOUS
 62
    3
 10
1227.4326
 20
2326.096
 11
1226.9783
 21
2325.4769
  0
LINE
  8
1-2
  6
CONTINUOUS
 62
    3
 10
1226.9783
 20
2325.4769
 11
1226.5091
 21
2324.9288
  0
LINE
  8
1-2
  6
CONTINUOUS
 62
    3
 10
1226.5091
 20
2324.9288
 11
1226.0259
 21
2324.447
  0
LINE
  8
1-2
  6
CONTINUOUS
 62
    3
 10
1226.0259
 20
2324.447
 11
1225.5285
 21
2324.0281
  0
LINE
  8
1-2
  6
CONTINUOUS
 62
    3
 10
1225.5285
 20
2324.0281
 11
1225.0182
 21
2323.6669
  0
LINE
  8
1-2
  6
CONTINUOUS
 62
    3
 10
1225.0182
 20
2323.6669
 11
1224.4946
 21
2323.3605
  0
LINE
  8
1-2
  6
CONTINUOUS
 62
    3
 10
1224.4946
 20
2323.3605
 11
1223.9585
 21
2323.1034
  0
LINE
  8
1-2
  6
CONTINUOUS
 62
    3
 10
1223.9585
 20
2323.1034
 11
1223.4098
 21
2322.8924
  0
LINE
  8
1-2
  6
CONTINUOUS
 62
    3
 10
1223.4098
 20
2322.8924
 11
1222.8495
 21
2322.7224
  0
LINE
  8
1-2
  6
CONTINUOUS
 62
    3
 10
1222.8495
 20
2322.7224
 11
1222.2779
 21
2322.5898
  0
LINE
  8
1-2
  6
CONTINUOUS
 62
    3
 10
1221.0209
 20
2322.5898
 11
1220.4251
 21
2322.7026
  0
LINE
  8
1-2
  6
CONTINUOUS
 62
    3
 10
1220.4251
 20
2322.7026
 11
1219.8337
 21
2322.8832
  0
LINE
  8
1-2
  6
CONTINUOUS
 62
    3
 10
1219.8337
 20
2322.8832
 11
1219.2472
 21
2323.1299
  0
LINE
  8
1-2
  6
CONTINUOUS
 62
    3
 10
1219.2472
 20
2323.1299
 11
1218.6653
 21
2323.4437
  0
LINE
  8
1-2
  6
CONTINUOUS
 62
    3
 10
1218.6653
 20
2323.4437
 11
1218.0886
 21
2323.8245
  0
LINE
  8
1-2
  6
CONTINUOUS
 62
    3
 10
1218.0886
 20
2323.8245
 11
1217.5164
 21
2324.2714
  0
LINE
  8
1-2
  6
CONTINUOUS
 62
    3
 10
1217.5164
 20
2324.2714
 11
1216.9493
 21
2324.786
  0
LINE
  8
1-2
  6
CONTINUOUS
 62
    3
 10
1216.9493
 20
2324.786
 11
1216.3868
 21
2325.3675
  0
LINE
  8
1-2
  6
CONTINUOUS
 62
    3
 10
1216.3868
 20
2325.3675
 11
1215.8295
 21
2326.0151
  0
LINE
  8
1-2
  6
CONTINUOUS
 62
    3
 10
1271.0009
 20
2329.3666
 11
1270.8877
 21
2328.6461
  0
LINE
  8
1-2
  6
CONTINUOUS
 62
    3
 10
1270.8877
 20
2328.6461
 11
1270.7266
 21
2327.9755
  0
LINE
  8
1-2
  6
CONTINUOUS
 62
    3
 10
1270.7266
 20
2327.9755
 11
1270.5221
 21
2327.3525
  0
LINE
  8
1-2
  6
CONTINUOUS
 62
    3
 10
1270.5221
 20
2327.3525
 11
1270.2774
 21
2326.7754
  0
LINE
  8
1-2
  6
CONTINUOUS
 62
    3
 10
1270.2774
 20
2326.7754
 11
1269.9963
 21
2326.242
  0
LINE
  8
1-2
  6
CONTINUOUS
 62
    3
 10
1269.9963
 20
2326.242
 11
1269.6817
 21
2325.7503
  0
LINE
  8
1-2
  6
CONTINUOUS
 62
    3
 10
1269.6817
 20
2325.7503
 11
1269.3372
 21
2325.2992
  0
LINE
  8
1-2
  6
CONTINUOUS
 62
    3
 10
1269.3372
 20
2325.2992
 11
1268.9659
 21
2324.8867
  0
LINE
  8
1-2
  6
CONTINUOUS
 62
    3
 10
1268.9659
 20
2324.8867
 11
1268.5702
 21
2324.5114
  0
LINE
  8
1-2
  6
CONTINUOUS
 62
    3
 10
1268.5702
 20
2324.5114
 11
1268.1529
 21
2324.1724
  0
LINE
  8
1-2
  6
CONTINUOUS
 62
    3
 10
1268.1529
 20
2324.1724
 11
1267.7164
 21
2323.8685
  0
LINE
  8
1-2
  6
CONTINUOUS
 62
    3
 10
1267.7164
 20
2323.8685
 11
1267.2629
 21
2323.5983
  0
LINE
  8
1-2
  6
CONTINUOUS
 62
    3
 10
1267.2629
 20
2323.5983
 11
1266.7944
 21
2323.3608
  0
LINE
  8
1-2
  6
CONTINUOUS
 62
    3
 10
1266.7944
 20
2323.3608
 11
1266.3128
 21
2323.1554
  0
LINE
  8
1-2
  6
CONTINUOUS
 62
    3
 10
1266.3128
 20
2323.1554
 11
1265.8195
 21
2322.9815
  0
LINE
  8
1-2
  6
CONTINUOUS
 62
    3
 10
1265.8195
 20
2322.9815
 11
1265.3163
 21
2322.8379
  0
LINE
  8
1-2
  6
CONTINUOUS
 62
    3
 10
1265.3163
 20
2322.8379
 11
1264.8046
 21
2322.7254
  0
LINE
  8
1-2
  6
CONTINUOUS
 62
    3
 10
1264.8046
 20
2322.7254
 11
1264.285
 21
2322.643
  0
LINE
  8
1-2
  6
CONTINUOUS
 62
    3
 10
1264.285
 20
2322.643
 11
1263.7589
 21
2322.5898
  0
LINE
  8
1-2
  6
CONTINUOUS
 62
    3
 10
1263.6262
 20
2322.5959
 11
1263.3299
 21
2322.6251
  0
LINE
  8
1-2
  6
CONTINUOUS
 62
    3
 10
1263.3299
 20
2322.6251
 11
1263.0386
 21
2322.6672
  0
LINE
  8
1-2
  6
CONTINUOUS
 62
    3
 10
1263.0386
 20
2322.6672
 11
1262.7525
 21
2322.7224
  0
LINE
  8
1-2
  6
CONTINUOUS
 62
    3
 10
1262.7525
 20
2322.7224
 11
1262.4716
 21
2322.7902
  0
LINE
  8
1-2
  6
CONTINUOUS
 62
    3
 10
1262.4716
 20
2322.7902
 11
1262.1957
 21
2322.8701
  0
LINE
  8
1-2
  6
CONTINUOUS
 62
    3
 10
1262.1957
 20
2322.8701
 11
1261.925
 21
2322.9634
  0
LINE
  8
1-2
  6
CONTINUOUS
 62
    3
 10
1261.925
 20
2322.9634
 11
1261.6594
 21
2323.0693
  0
LINE
  8
1-2
  6
CONTINUOUS
 62
    3
 10
1261.6594
 20
2323.0693
 11
1261.399
 21
2323.1881
  0
LINE
  8
1-2
  6
CONTINUOUS
 62
    3
 10
1261.399
 20
2323.1881
 11
1261.1433
 21
2323.3197
  0
LINE
  8
1-2
  6
CONTINUOUS
 62
    3
 10
1383.3657
 20
2329.3666
 11
1383.2642
 21
2328.609
  0
LINE
  8
1-2
  6
CONTINUOUS
 62
    3
 10
1383.2642
 20
2328.609
 11
1383.1566
 21
2327.9161
  0
LINE
  8
1-2
  6
CONTINUOUS
 62
    3
 10
1383.1566
 20
2327.9161
 11
1383.0438
 21
2327.2894
  0
LINE
  8
1-2
  6
CONTINUOUS
 62
    3
 10
1383.0438
 20
2327.2894
 11
1382.9245
 21
2326.7272
  0
LINE
  8
1-2
  6
CONTINUOUS
 62
    3
 10
1382.9245
 20
2326.7272
 11
1382.7995
 21
2326.2311
  0
LINE
  8
1-2
  6
CONTINUOUS
 62
    3
 10
1382.7995
 20
2326.2311
 11
1382.6686
 21
2325.8003
  0
LINE
  8
1-2
  6
CONTINUOUS
 62
    3
 10
1382.6686
 20
2325.8003
 11
1382.5318
 21
2325.4343
  0
LINE
  8
1-2
  6
CONTINUOUS
 62
    3
 10
1382.5318
 20
2325.4343
 11
1382.3893
 21
2325.1347
  0
LINE
  8
1-2
  6
CONTINUOUS
 62
    3
 10
1382.3893
 20
2325.1347
 11
1382.2408
 21
2324.8999
  0
LINE
  8
1-2
  6
CONTINUOUS
 62
    3
 10
1364.9192
 20
2329.3666
 11
1364.8631
 21
2328.7666
  0
LINE
  8
1-2
  6
CONTINUOUS
 62
    3
 10
1364.8631
 20
2328.7666
 11
1364.7703
 21
2328.1992
  0
LINE
  8
1-2
  6
CONTINUOUS
 62
    3
 10
1364.7703
 20
2328.1992
 11
1364.6449
 21
2327.6643
  0
LINE
  8
1-2
  6
CONTINUOUS
 62
    3
 10
1364.6449
 20
2327.6643
 11
1364.4907
 21
2327.1624
  0
LINE
  8
1-2
  6
CONTINUOUS
 62
    3
 10
1364.4907
 20
2327.1624
 11
1364.3105
 21
2326.6935
  0
LINE
  8
1-2
  6
CONTINUOUS
 62
    3
 10
1364.3105
 20
2326.6935
 11
1364.1085
 21
2326.2583
  0
LINE
  8
1-2
  6
CONTINUOUS
 62
    3
 10
1364.1085
 20
2326.2583
 11
1363.8882
 21
2325.856
  0
LINE
  8
1-2
  6
CONTINUOUS
 62
    3
 10
1363.8882
 20
2325.856
 11
1363.6531
 21
2325.4875
  0
LINE
  8
1-2
  6
CONTINUOUS
 62
    3
 10
1363.6531
 20
2325.4875
 11
1363.4069
 21
2325.1522
  0
LINE
  8
1-2
  6
CONTINUOUS
 62
    3
 10
1363.4069
 20
2325.1522
 11
1363.1533
 21
2324.8516
  0
LINE
  8
1-2
  6
CONTINUOUS
 62
    3
 10
1363.1533
 20
2324.8516
 11
1362.8953
 21
2324.5854
  0
LINE
  8
1-2
  6
CONTINUOUS
 62
    3
 10
1362.8953
 20
2324.5854
 11
1362.6374
 21
2324.3528
  0
LINE
  8
1-2
  6
CONTINUOUS
 62
    3
 10
1362.6374
 20
2324.3528
 11
1362.3825
 21
2324.1548
  0
LINE
  8
1-2
  6
CONTINUOUS
 62
    3
 10
1362.3825
 20
2324.1548
 11
1362.1345
 21
2323.9915
  0
LINE
  8
1-2
  6
CONTINUOUS
 62
    3
 10
1339.6558
 20
2329.3666
 11
1339.4883
 21
2328.6986
  0
LINE
  8
1-2
  6
CONTINUOUS
 62
    3
 10
1339.4883
 20
2328.6986
 11
1339.2844
 21
2328.0733
  0
LINE
  8
1-2
  6
CONTINUOUS
 62
    3
 10
1339.2844
 20
2328.0733
 11
1339.0454
 21
2327.4898
  0
LINE
  8
1-2
  6
CONTINUOUS
 62
    3
 10
1339.0454
 20
2327.4898
 11
1338.7731
 21
2326.9487
  0
LINE
  8
1-2
  6
CONTINUOUS
 62
    3
 10
1338.7731
 20
2326.9487
 11
1338.4687
 21
2326.4486
  0
LINE
  8
1-2
  6
CONTINUOUS
 62
    3
 10
1338.4687
 20
2326.4486
 11
1338.1338
 21
2325.9896
  0
LINE
  8
1-2
  6
CONTINUOUS
 62
    3
 10
1338.1338
 20
2325.9896
 11
1337.7701
 21
2325.5721
  0
LINE
  8
1-2
  6
CONTINUOUS
 62
    3
 10
1337.7701
 20
2325.5721
 11
1337.3782
 21
2325.1943
  0
LINE
  8
1-2
  6
CONTINUOUS
 62
    3
 10
1337.3782
 20
2325.1943
 11
1336.9607
 21
2324.8578
  0
LINE
  8
1-2
  6
CONTINUOUS
 62
    3
 10
1336.9607
 20
2324.8578
 11
1336.5183
 21
2324.5601
  0
LINE
  8
1-2
  6
CONTINUOUS
 62
    3
 10
1336.5183
 20
2324.5601
 11
1336.0526
 21
2324.3028
  0
LINE
  8
1-2
  6
CONTINUOUS
 62
    3
 10
1336.0526
 20
2324.3028
 11
1335.5651
 21
2324.0843
  0
LINE
  8
1-2
  6
CONTINUOUS
 62
    3
 10
1335.5651
 20
2324.0843
 11
1335.0573
 21
2323.9051
  0
LINE
  8
1-2
  6
CONTINUOUS
 62
    3
 10
1335.0573
 20
2323.9051
 11
1334.5308
 21
2323.7641
  0
LINE
  8
1-2
  6
CONTINUOUS
 62
    3
 10
1308.1364
 20
2329.3666
 11
1307.883
 21
2328.6669
  0
LINE
  8
1-2
  6
CONTINUOUS
 62
    3
 10
1307.883
 20
2328.6669
 11
1307.5864
 21
2328.0176
  0
LINE
  8
1-2
  6
CONTINUOUS
 62
    3
 10
1307.5864
 20
2328.0176
 11
1307.2498
 21
2327.42
  0
LINE
  8
1-2
  6
CONTINUOUS
 62
    3
 10
1307.2498
 20
2327.42
 11
1306.8769
 21
2326.8737
  0
LINE
  8
1-2
  6
CONTINUOUS
 62
    3
 10
1306.8769
 20
2326.8737
 11
1306.4716
 21
2326.3793
  0
LINE
  8
1-2
  6
CONTINUOUS
 62
    3
 10
1306.4716
 20
2326.3793
 11
1306.0375
 21
2325.9359
  0
LINE
  8
1-2
  6
CONTINUOUS
 62
    3
 10
1306.0375
 20
2325.9359
 11
1305.5784
 21
2325.5432
  0
LINE
  8
1-2
  6
CONTINUOUS
 62
    3
 10
1305.5784
 20
2325.5432
 11
1305.0981
 21
2325.2015
  0
LINE
  8
1-2
  6
CONTINUOUS
 62
    3
 10
1305.0981
 20
2325.2015
 11
1304.601
 21
2324.909
  0
LINE
  8
1-2
  6
CONTINUOUS
 62
    3
 10
1304.601
 20
2324.909
 11
1304.091
 21
2324.666
  0
LINE
  8
1-2
  6
CONTINUOUS
 62
    3
 10
1304.091
 20
2324.666
 11
1303.5726
 21
2324.471
  0
LINE
  8
1-2
  6
CONTINUOUS
 62
    3
 10
1303.5726
 20
2324.471
 11
1303.0497
 21
2324.3218
  0
LINE
  8
1-2
  6
CONTINUOUS
 62
    3
 10
1303.0497
 20
2324.3218
 11
1302.5272
 21
2324.2187
  0
LINE
  8
1-2
  6
CONTINUOUS
 62
    3
 10
1302.5272
 20
2324.2187
 11
1302.0097
 21
2324.1593
  0
LINE
  8
1-2
  6
CONTINUOUS
 62
    3
 10
1302.0097
 20
2324.1593
 11
1301.5012
 21
2324.1412
  0
LINE
  8
1-2
  6
CONTINUOUS
 62
    3
 10
1301.5012
 20
2324.1412
 11
1301.0067
 21
2324.1635
  0
LINE
  8
1-2
  6
CONTINUOUS
 62
    3
 10
1301.0067
 20
2324.1635
 11
1300.5314
 21
2324.2229
  0
LINE
  8
1-2
  6
CONTINUOUS
 62
    3
 10
1300.5314
 20
2324.2229
 11
1300.0798
 21
2324.3176
  0
LINE
  8
1-2
  6
CONTINUOUS
 62
    3
 10
1300.0798
 20
2324.3176
 11
1299.6571
 21
2324.4456
  0
LINE
  8
1-2
  6
CONTINUOUS
 62
    3
 10
1383.3657
 20
2329.3666
 11
1391.667
 21
2329.3666
  0
LINE
  8
1-2
  6
CONTINUOUS
 62
    3
 10
1464.6744
 20
2246.0334
 11
1383.3657
 21
2329.3666
  0
LINE
  8
1-2
  6
CONTINUOUS
 62
    3
 10
1378.0019
 20
2329.3666
 11
1458.0022
 21
2246.0334
  0
LINE
  8
1-2
  6
CONTINUOUS
 62
    3
 10
1441.7288
 20
2246.0334
 11
1364.9192
 21
2329.3666
  0
LINE
  8
1-2
  6
CONTINUOUS
 62
    3
 10
1364.9192
 20
2329.3666
 11
1378.0019
 21
2329.3666
  0
LINE
  8
1-2
  6
CONTINUOUS
 62
    3
 10
1357.2314
 20
2329.3666
 11
1432.1658
 21
2246.0334
  0
LINE
  8
1-2
  6
CONTINUOUS
 62
    3
 10
1339.6558
 20
2329.3666
 11
1357.2314
 21
2329.3666
  0
LINE
  8
1-2
  6
CONTINUOUS
 62
    3
 10
1410.3035
 20
2246.0334
 11
1339.6558
 21
2329.3666
  0
LINE
  8
1-2
  6
CONTINUOUS
 62
    3
 10
1329.8102
 20
2329.3666
 11
1398.0564
 21
2246.0334
  0
LINE
  8
1-2
  6
CONTINUOUS
 62
    3
 10
1308.1222
 20
2329.3666
 11
1329.8102
 21
2329.3666
  0
LINE
  8
1-2
  6
CONTINUOUS
 62
    3
 10
1371.0789
 20
2246.0334
 11
1308.1222
 21
2329.3666
  0
LINE
  8
1-2
  6
CONTINUOUS
 62
    3
 10
1296.3322
 20
2329.3666
 11
1356.413
 21
2246.0334
  0
LINE
  8
1-2
  6
CONTINUOUS
 62
    3
 10
1271.0009
 20
2329.3666
 11
1296.3322
 21
2329.3666
  0
LINE
  8
1-2
  6
CONTINUOUS
 62
    3
 10
1324.9036
 20
2246.0334
 11
1271.0009
 21
2329.3666
  0
LINE
  8
1-2
  6
CONTINUOUS
 62
    3
 10
1257.5212
 20
2329.3666
 11
1308.1364
 21
2246.0334
  0
LINE
  8
1-2
  6
CONTINUOUS
 62
    3
 10
1229.096
 20
2329.3666
 11
1257.5212
 21
2329.3666
  0
LINE
  8
1-2
  6
CONTINUOUS
 62
    3
 10
1272.7779
 20
2246.0334
 11
1229.096
 21
2329.3666
  0
LINE
  8
1-2
  6
CONTINUOUS
 62
    3
 10
1214.2186
 20
2329.3666
 11
1254.2719
 21
2246.0334
  0
LINE
  8
1-2
  6
CONTINUOUS
 62
    3
 10
1183.314
 20
2329.3666
 11
1214.2186
 21
2329.3666
  0
LINE
  8
1-2
  6
CONTINUOUS
 62
    3
 10
1215.8295
 20
2246.0334
 11
1183.314
 21
2329.3666
  0
LINE
  8
1-2
  6
CONTINUOUS
 62
    3
 10
1195.9858
 20
2246.0334
 11
1167.361
 21
2329.3666
  0
LINE
  8
1-2
  6
CONTINUOUS
 62
    3
 10
1134.6458
 20
2329.3666
 11
1167.361
 21
2329.3666
  0
LINE
  8
1-2
  6
CONTINUOUS
 62
    3
 10
1134.6458
 20
2329.3666
 11
1155.2915
 21
2246.0334
  0
LINE
  8
1-2
  6
CONTINUOUS
 62
    3
 10
1134.5391
 20
2246.0334
 11
1117.9627
 21
2329.3666
  0
LINE
  8
1-2
  6
CONTINUOUS
 62
    3
 10
1084.1457
 20
2329.3666
 11
1117.9627
 21
2329.3666
  0
LINE
  8
1-2
  6
CONTINUOUS
 62
    3
 10
1084.1457
 20
2329.3666
 11
1092.4739
 21
2246.0334
  0
LINE
  8
1-2
  6
CONTINUOUS
 62
    3
 10
1067.0934
 20
2329.3666
 11
1071.2625
 21
2246.0334
  0
LINE
  8
1-2
  6
CONTINUOUS
 62
    3
 10
1050
 20
2329.3666
 11
1067.0934
 21
2329.3666
  0
LINE
  8
1-2
  6
CONTINUOUS
 62
    3
 10
1007.526
 20
2129.3667
 11
1007.526
 21
1896.0332
  0
LINE
  8
1-2
  6
CONTINUOUS
 62
    3
 10
965.46099
 20
2129.3667
 11
965.46099
 21
1896.0332
  0
LINE
  8
1-2
  6
CONTINUOUS
 62
    3
 10
884.17057
 20
2129.3667
 11
884.17057
 21
1896.0332
  0
LINE
  8
1-2
  6
CONTINUOUS
 62
    3
 10
845.72807
 20
2129.3667
 11
845.72807
 21
1896.0332
  0
LINE
  8
1-2
  6
CONTINUOUS
 62
    3
 10
775.09625
 20
2129.3667
 11
775.09625
 21
1896.0332
  0
LINE
  8
1-2
  6
CONTINUOUS
 62
    3
 10
743.58701
 20
2129.3667
 11
743.58701
 21
1896.0332
  0
LINE
  8
1-2
  6
CONTINUOUS
 62
    3
 10
689.69647
 20
2129.3667
 11
689.69647
 21
1896.0332
  0
LINE
  8
1-2
  6
CONTINUOUS
 62
    3
 10
965.46099
 20
1896.0332
 11
884.17057
 21
1916.2342
  0
LINE
  8
1-2
  6
CONTINUOUS
 62
    3
 10
743.58701
 20
1896.0332
 11
689.69647
 21
1916.2342
  0
LINE
  8
1-2
  6
CONTINUOUS
 62
    3
 10
789.35447
 20
2129.3667
 11
789.35447
 21
1896.0332
  0
LINE
  8
1-2
  6
CONTINUOUS
 62
    3
 10
806.02103
 20
2129.3667
 11
806.02103
 21
1896.0332
  0
LINE
  8
1-2
  6
CONTINUOUS
 62
    3
 10
845.72807
 20
1896.0332
 11
806.02103
 21
1907.3897
  0
LINE
  8
1-2
  6
CONTINUOUS
 62
    3
 10
789.35447
 20
1912.1564
 11
775.09637
 21
1916.2342
  0
LINE
  8
1-2
  6
CONTINUOUS
 62
    3
 10
624.99986
 20
1796.0332
 11
624.99986
 21
1879.3671
  0
LINE
  8
1-2
  6
CONTINUOUS
 62
    3
 10
1092.4739
 20
2129.3667
 11
1092.4739
 21
1896.0332
  0
LINE
  8
1-2
  6
CONTINUOUS
 62
    3
 10
1134.5391
 20
2129.3667
 11
1134.5391
 21
1896.0332
  0
LINE
  8
1-2
  6
CONTINUOUS
 62
    3
 10
1215.8295
 20
2129.3667
 11
1215.8295
 21
1896.0332
  0
LINE
  8
1-2
  6
CONTINUOUS
 62
    3
 10
1254.2719
 20
2129.3667
 11
1254.2719
 21
1896.0332
  0
LINE
  8
1-2
  6
CONTINUOUS
 62
    3
 10
1324.9036
 20
2129.3667
 11
1324.9036
 21
1896.0332
  0
LINE
  8
1-2
  6
CONTINUOUS
 62
    3
 10
1356.413
 20
2129.3667
 11
1356.413
 21
1896.0332
  0
LINE
  8
1-2
  6
CONTINUOUS
 62
    3
 10
1410.3035
 20
2129.3667
 11
1410.3035
 21
1896.0332
  0
LINE
  8
1-2
  6
CONTINUOUS
 62
    3
 10
1310.6457
 20
2129.3667
 11
1310.6457
 21
1896.0332
  0
LINE
  8
1-2
  6
CONTINUOUS
 62
    3
 10
1293.979
 20
2129.3667
 11
1293.979
 21
1896.0332
  0
LINE
  8
1-2
  6
CONTINUOUS
 62
    3
 10
1134.5391
 20
1916.2342
 11
1215.8295
 21
1896.0332
  0
LINE
  8
1-2
  6
CONTINUOUS
 62
    3
 10
1092.4739
 20
1896.0332
 11
1007.526
 21
1916.2342
  0
LINE
  8
1-2
  6
CONTINUOUS
 62
    3
 10
624.99986
 20
1779.3667
 11
1475.0013
 21
1779.3667
  0
LINE
  8
1-2
  6
CONTINUOUS
 62
    3
 10
1475.0001
 20
1779.3664
 11
1391.667
 21
1696.0334
  0
LINE
  8
1-2
  6
CONTINUOUS
 62
    3
 10
624.99986
 20
1779.3664
 11
708.33302
 21
1696.0334
  0
LINE
  8
1-2
  6
CONTINUOUS
 62
    3
 10
975.96061
 20
1702.9214
 11
976.64651
 21
1702.7378
  0
LINE
  8
1-2
  6
CONTINUOUS
 62
    3
 10
976.64651
 20
1702.7378
 11
977.29084
 21
1702.4881
  0
LINE
  8
1-2
  6
CONTINUOUS
 62
    3
 10
977.29084
 20
1702.4881
 11
977.89398
 21
1702.1768
  0
LINE
  8
1-2
  6
CONTINUOUS
 62
    3
 10
977.89398
 20
1702.1768
 11
978.4569
 21
1701.8089
  0
LINE
  8
1-2
  6
CONTINUOUS
 62
    3
 10
978.4569
 20
1701.8089
 11
978.98024
 21
1701.3887
  0
LINE
  8
1-2
  6
CONTINUOUS
 62
    3
 10
978.98024
 20
1701.3887
 11
979.46485
 21
1700.921
  0
LINE
  8
1-2
  6
CONTINUOUS
 62
    3
 10
979.46485
 20
1700.921
 11
979.91148
 21
1700.4106
  0
LINE
  8
1-2
  6
CONTINUOUS
 62
    3
 10
979.91148
 20
1700.4106
 11
980.32099
 21
1699.862
  0
LINE
  8
1-2
  6
CONTINUOUS
 62
    3
 10
980.32099
 20
1699.862
 11
980.69376
 21
1699.2803
  0
LINE
  8
1-2
  6
CONTINUOUS
 62
    3
 10
980.69376
 20
1699.2803
 11
981.03102
 21
1698.6696
  0
LINE
  8
1-2
  6
CONTINUOUS
 62
    3
 10
981.03102
 20
1698.6696
 11
981.33314
 21
1698.0347
  0
LINE
  8
1-2
  6
CONTINUOUS
 62
    3
 10
981.33314
 20
1698.0347
 11
981.60112
 21
1697.3807
  0
LINE
  8
1-2
  6
CONTINUOUS
 62
    3
 10
981.60112
 20
1697.3807
 11
981.83557
 21
1696.7121
  0
LINE
  8
1-2
  6
CONTINUOUS
 62
    3
 10
981.83557
 20
1696.7121
 11
982.03736
 21
1696.0334
  0
LINE
  8
1-2
  6
CONTINUOUS
 62
    3
 10
972.19321
 20
1702.9582
 11
971.40004
 21
1702.7034
  0
LINE
  8
1-2
  6
CONTINUOUS
 62
    3
 10
971.40004
 20
1702.7034
 11
970.65587
 21
1702.402
  0
LINE
  8
1-2
  6
CONTINUOUS
 62
    3
 10
970.65587
 20
1702.402
 11
969.95994
 21
1702.057
  0
LINE
  8
1-2
  6
CONTINUOUS
 62
    3
 10
969.95994
 20
1702.057
 11
969.31215
 21
1701.6703
  0
LINE
  8
1-2
  6
CONTINUOUS
 62
    3
 10
969.31215
 20
1701.6703
 11
968.71173
 21
1701.2447
  0
LINE
  8
1-2
  6
CONTINUOUS
 62
    3
 10
968.71173
 20
1701.2447
 11
968.15809
 21
1700.7822
  0
LINE
  8
1-2
  6
CONTINUOUS
 62
    3
 10
968.15809
 20
1700.7822
 11
967.65096
 21
1700.2849
  0
LINE
  8
1-2
  6
CONTINUOUS
 62
    3
 10
967.65096
 20
1700.2849
 11
967.18961
 21
1699.7556
  0
LINE
  8
1-2
  6
CONTINUOUS
 62
    3
 10
967.18961
 20
1699.7556
 11
966.77341
 21
1699.1964
  0
LINE
  8
1-2
  6
CONTINUOUS
 62
    3
 10
966.77341
 20
1699.1964
 11
966.40213
 21
1698.6097
  0
LINE
  8
1-2
  6
CONTINUOUS
 62
    3
 10
966.40213
 20
1698.6097
 11
966.07501
 21
1697.9973
  0
LINE
  8
1-2
  6
CONTINUOUS
 62
    3
 10
966.07501
 20
1697.9973
 11
965.79169
 21
1697.3624
  0
LINE
  8
1-2
  6
CONTINUOUS
 62
    3
 10
965.79169
 20
1697.3624
 11
965.55155
 21
1696.7071
  0
LINE
  8
1-2
  6
CONTINUOUS
 62
    3
 10
965.55155
 20
1696.7071
 11
965.35397
 21
1696.0334
  0
LINE
  8
1-2
  6
CONTINUOUS
 62
    3
 10
932.63909
 20
1696.0334
 11
931.87079
 21
1697.152
  0
LINE
  8
1-2
  6
CONTINUOUS
 62
    3
 10
931.87079
 20
1697.152
 11
931.09358
 21
1698.1472
  0
LINE
  8
1-2
  6
CONTINUOUS
 62
    3
 10
931.09358
 20
1698.1472
 11
930.31055
 21
1699.0257
  0
LINE
  8
1-2
  6
CONTINUOUS
 62
    3
 10
930.31055
 20
1699.0257
 11
929.52469
 21
1699.7942
  0
LINE
  8
1-2
  6
CONTINUOUS
 62
    3
 10
929.52469
 20
1699.7942
 11
928.73919
 21
1700.4601
  0
LINE
  8
1-2
  6
CONTINUOUS
 62
    3
 10
928.73919
 20
1700.4601
 11
927.95691
 21
1701.0297
  0
LINE
  8
1-2
  6
CONTINUOUS
 62
    3
 10
927.95691
 20
1701.0297
 11
927.18094
 21
1701.5102
  0
LINE
  8
1-2
  6
CONTINUOUS
 62
    3
 10
927.18094
 20
1701.5102
 11
926.41437
 21
1701.9086
  0
LINE
  8
1-2
  6
CONTINUOUS
 62
    3
 10
926.41437
 20
1701.9086
 11
925.66029
 21
1702.2317
  0
LINE
  8
1-2
  6
CONTINUOUS
 62
    3
 10
925.66029
 20
1702.2317
 11
924.92169
 21
1702.4861
  0
LINE
  8
1-2
  6
CONTINUOUS
 62
    3
 10
924.92169
 20
1702.4861
 11
924.20164
 21
1702.6794
  0
LINE
  8
1-2
  6
CONTINUOUS
 62
    3
 10
924.20164
 20
1702.6794
 11
923.50336
 21
1702.8177
  0
LINE
  8
1-2
  6
CONTINUOUS
 62
    3
 10
923.50336
 20
1702.8177
 11
922.82958
 21
1702.9087
  0
LINE
  8
1-2
  6
CONTINUOUS
 62
    3
 10
922.82958
 20
1702.9087
 11
922.18364
 21
1702.9582
  0
LINE
  8
1-2
  6
CONTINUOUS
 62
    3
 10
916.68615
 20
1696.0334
 11
916.70916
 21
1696.838
  0
LINE
  8
1-2
  6
CONTINUOUS
 62
    3
 10
916.70916
 20
1696.838
 11
916.77869
 21
1697.5818
  0
LINE
  8
1-2
  6
CONTINUOUS
 62
    3
 10
916.77869
 20
1697.5818
 11
916.89709
 21
1698.2675
  0
LINE
  8
1-2
  6
CONTINUOUS
 62
    3
 10
916.89709
 20
1698.2675
 11
917.06733
 21
1698.899
  0
LINE
  8
1-2
  6
CONTINUOUS
 62
    3
 10
917.06733
 20
1698.899
 11
917.292
 21
1699.4795
  0
LINE
  8
1-2
  6
CONTINUOUS
 62
    3
 10
917.292
 20
1699.4795
 11
917.57334
 21
1700.012
  0
LINE
  8
1-2
  6
CONTINUOUS
 62
    3
 10
917.57334
 20
1700.012
 11
917.91419
 21
1700.5002
  0
LINE
  8
1-2
  6
CONTINUOUS
 62
    3
 10
917.91419
 20
1700.5002
 11
918.31715
 21
1700.9475
  0
LINE
  8
1-2
  6
CONTINUOUS
 62
    3
 10
918.31715
 20
1700.9475
 11
918.78468
 21
1701.357
  0
LINE
  8
1-2
  6
CONTINUOUS
 62
    3
 10
918.78468
 20
1701.357
 11
919.31952
 21
1701.7324
  0
LINE
  8
1-2
  6
CONTINUOUS
 62
    3
 10
919.31952
 20
1701.7324
 11
919.92439
 21
1702.0768
  0
LINE
  8
1-2
  6
CONTINUOUS
 62
    3
 10
919.92439
 20
1702.0768
 11
920.60151
 21
1702.3938
  0
LINE
  8
1-2
  6
CONTINUOUS
 62
    3
 10
920.60151
 20
1702.3938
 11
921.35385
 21
1702.6868
  0
LINE
  8
1-2
  6
CONTINUOUS
 62
    3
 10
921.35385
 20
1702.6868
 11
922.18364
 21
1702.9582
  0
LINE
  8
1-2
  6
CONTINUOUS
 62
    3
 10
870.90409
 20
1696.0334
 11
871.29591
 21
1696.9783
  0
LINE
  8
1-2
  6
CONTINUOUS
 62
    3
 10
871.29591
 20
1696.9783
 11
871.70393
 21
1697.836
  0
LINE
  8
1-2
  6
CONTINUOUS
 62
    3
 10
871.70393
 20
1697.836
 11
872.12792
 21
1698.6097
  0
LINE
  8
1-2
  6
CONTINUOUS
 62
    3
 10
872.12792
 20
1698.6097
 11
872.56738
 21
1699.304
  0
LINE
  8
1-2
  6
CONTINUOUS
 62
    3
 10
872.56738
 20
1699.304
 11
873.0218
 21
1699.9231
  0
LINE
  8
1-2
  6
CONTINUOUS
 62
    3
 10
873.0218
 20
1699.9231
 11
873.49095
 21
1700.4715
  0
LINE
  8
1-2
  6
CONTINUOUS
 62
    3
 10
873.49095
 20
1700.4715
 11
873.9742
 21
1700.9532
  0
LINE
  8
1-2
  6
CONTINUOUS
 62
    3
 10
873.9742
 20
1700.9532
 11
874.47143
 21
1701.3721
  0
LINE
  8
1-2
  6
CONTINUOUS
 62
    3
 10
874.47143
 20
1701.3721
 11
874.98189
 21
1701.7331
  0
LINE
  8
1-2
  6
CONTINUOUS
 62
    3
 10
874.98189
 20
1701.7331
 11
875.50548
 21
1702.0397
  0
LINE
  8
1-2
  6
CONTINUOUS
 62
    3
 10
875.50548
 20
1702.0397
 11
876.04168
 21
1702.2966
  0
LINE
  8
1-2
  6
CONTINUOUS
 62
    3
 10
876.04168
 20
1702.2966
 11
876.59025
 21
1702.5079
  0
LINE
  8
1-2
  6
CONTINUOUS
 62
    3
 10
876.59025
 20
1702.5079
 11
877.15033
 21
1702.6774
  0
LINE
  8
1-2
  6
CONTINUOUS
 62
    3
 10
877.15033
 20
1702.6774
 11
877.72204
 21
1702.8103
  0
LINE
  8
1-2
  6
CONTINUOUS
 62
    3
 10
878.97904
 20
1702.8103
 11
879.57512
 21
1702.6972
  0
LINE
  8
1-2
  6
CONTINUOUS
 62
    3
 10
879.57512
 20
1702.6972
 11
880.1665
 21
1702.517
  0
LINE
  8
1-2
  6
CONTINUOUS
 62
    3
 10
880.1665
 20
1702.517
 11
880.75293
 21
1702.2701
  0
LINE
  8
1-2
  6
CONTINUOUS
 62
    3
 10
880.75293
 20
1702.2701
 11
881.33479
 21
1701.9563
  0
LINE
  8
1-2
  6
CONTINUOUS
 62
    3
 10
881.33479
 20
1701.9563
 11
881.91145
 21
1701.5758
  0
LINE
  8
1-2
  6
CONTINUOUS
 62
    3
 10
881.91145
 20
1701.5758
 11
882.48353
 21
1701.1284
  0
LINE
  8
1-2
  6
CONTINUOUS
 62
    3
 10
882.48353
 20
1701.1284
 11
883.05066
 21
1700.614
  0
LINE
  8
1-2
  6
CONTINUOUS
 62
    3
 10
883.05066
 20
1700.614
 11
883.61309
 21
1700.0327
  0
LINE
  8
1-2
  6
CONTINUOUS
 62
    3
 10
883.61309
 20
1700.0327
 11
884.17057
 21
1699.3849
  0
LINE
  8
1-2
  6
CONTINUOUS
 62
    3
 10
828.99891
 20
1696.0334
 11
829.11236
 21
1696.7537
  0
LINE
  8
1-2
  6
CONTINUOUS
 62
    3
 10
829.11236
 20
1696.7537
 11
829.2732
 21
1697.4245
  0
LINE
  8
1-2
  6
CONTINUOUS
 62
    3
 10
829.2732
 20
1697.4245
 11
829.47796
 21
1698.0475
  0
LINE
  8
1-2
  6
CONTINUOUS
 62
    3
 10
829.47796
 20
1698.0475
 11
829.72267
 21
1698.6248
  0
LINE
  8
1-2
  6
CONTINUOUS
 62
    3
 10
829.72267
 20
1698.6248
 11
830.00389
 21
1699.158
  0
LINE
  8
1-2
  6
CONTINUOUS
 62
    3
 10
830.00389
 20
1699.158
 11
830.31826
 21
1699.6497
  0
LINE
  8
1-2
  6
CONTINUOUS
 62
    3
 10
830.31826
 20
1699.6497
 11
830.66257
 21
1700.101
  0
LINE
  8
1-2
  6
CONTINUOUS
 62
    3
 10
830.66257
 20
1700.101
 11
831.03398
 21
1700.5133
  0
LINE
  8
1-2
  6
CONTINUOUS
 62
    3
 10
831.03398
 20
1700.5133
 11
831.42976
 21
1700.8886
  0
LINE
  8
1-2
  6
CONTINUOUS
 62
    3
 10
831.42976
 20
1700.8886
 11
831.84694
 21
1701.2274
  0
LINE
  8
1-2
  6
CONTINUOUS
 62
    3
 10
831.84694
 20
1701.2274
 11
832.28355
 21
1701.5315
  0
LINE
  8
1-2
  6
CONTINUOUS
 62
    3
 10
832.28355
 20
1701.5315
 11
832.73711
 21
1701.8019
  0
LINE
  8
1-2
  6
CONTINUOUS
 62
    3
 10
832.73711
 20
1701.8019
 11
833.20564
 21
1702.0395
  0
LINE
  8
1-2
  6
CONTINUOUS
 62
    3
 10
833.20564
 20
1702.0395
 11
833.68728
 21
1702.2449
  0
LINE
  8
1-2
  6
CONTINUOUS
 62
    3
 10
833.68728
 20
1702.2449
 11
834.18043
 21
1702.4186
  0
LINE
  8
1-2
  6
CONTINUOUS
 62
    3
 10
834.18043
 20
1702.4186
 11
834.68372
 21
1702.5621
  0
LINE
  8
1-2
  6
CONTINUOUS
 62
    3
 10
834.68372
 20
1702.5621
 11
835.19542
 21
1702.6747
  0
LINE
  8
1-2
  6
CONTINUOUS
 62
    3
 10
835.19542
 20
1702.6747
 11
835.71492
 21
1702.7573
  0
LINE
  8
1-2
  6
CONTINUOUS
 62
    3
 10
835.71492
 20
1702.7573
 11
836.2411
 21
1702.8103
  0
LINE
  8
1-2
  6
CONTINUOUS
 62
    3
 10
836.37386
 20
1702.8043
 11
836.67017
 21
1702.7749
  0
LINE
  8
1-2
  6
CONTINUOUS
 62
    3
 10
836.67017
 20
1702.7749
 11
836.9614
 21
1702.7328
  0
LINE
  8
1-2
  6
CONTINUOUS
 62
    3
 10
836.9614
 20
1702.7328
 11
837.24732
 21
1702.6779
  0
LINE
  8
1-2
  6
CONTINUOUS
 62
    3
 10
837.24732
 20
1702.6779
 11
837.52829
 21
1702.6101
  0
LINE
  8
1-2
  6
CONTINUOUS
 62
    3
 10
837.52829
 20
1702.6101
 11
837.80418
 21
1702.5299
  0
LINE
  8
1-2
  6
CONTINUOUS
 62
    3
 10
837.80418
 20
1702.5299
 11
838.07501
 21
1702.4366
  0
LINE
  8
1-2
  6
CONTINUOUS
 62
    3
 10
838.07501
 20
1702.4366
 11
838.34063
 21
1702.3307
  0
LINE
  8
1-2
  6
CONTINUOUS
 62
    3
 10
838.34063
 20
1702.3307
 11
838.60119
 21
1702.2119
  0
LINE
  8
1-2
  6
CONTINUOUS
 62
    3
 10
838.60119
 20
1702.2119
 11
838.85654
 21
1702.0803
  0
LINE
  8
1-2
  6
CONTINUOUS
 62
    3
 10
716.6345
 20
1696.0334
 11
716.73595
 21
1696.7913
  0
LINE
  8
1-2
  6
CONTINUOUS
 62
    3
 10
716.73595
 20
1696.7913
 11
716.8431
 21
1697.4839
  0
LINE
  8
1-2
  6
CONTINUOUS
 62
    3
 10
716.8431
 20
1697.4839
 11
716.95642
 21
1698.1109
  0
LINE
  8
1-2
  6
CONTINUOUS
 62
    3
 10
716.95642
 20
1698.1109
 11
717.07556
 21
1698.6728
  0
LINE
  8
1-2
  6
CONTINUOUS
 62
    3
 10
717.07556
 20
1698.6728
 11
717.20052
 21
1699.1692
  0
LINE
  8
1-2
  6
CONTINUOUS
 62
    3
 10
717.20052
 20
1699.1692
 11
717.33142
 21
1699.6
  0
LINE
  8
1-2
  6
CONTINUOUS
 62
    3
 10
717.33142
 20
1699.6
 11
717.46813
 21
1699.9654
  0
LINE
  8
1-2
  6
CONTINUOUS
 62
    3
 10
717.46813
 20
1699.9654
 11
717.61078
 21
1700.2656
  0
LINE
  8
1-2
  6
CONTINUOUS
 62
    3
 10
717.61078
 20
1700.2656
 11
717.75924
 21
1700.5002
  0
LINE
  8
1-2
  6
CONTINUOUS
 62
    3
 10
735.08077
 20
1696.0334
 11
735.13694
 21
1696.6337
  0
LINE
  8
1-2
  6
CONTINUOUS
 62
    3
 10
735.13694
 20
1696.6337
 11
735.22973
 21
1697.201
  0
LINE
  8
1-2
  6
CONTINUOUS
 62
    3
 10
735.22973
 20
1697.201
 11
735.35494
 21
1697.7358
  0
LINE
  8
1-2
  6
CONTINUOUS
 62
    3
 10
735.35494
 20
1697.7358
 11
735.50934
 21
1698.2378
  0
LINE
  8
1-2
  6
CONTINUOUS
 62
    3
 10
735.50934
 20
1698.2378
 11
735.68935
 21
1698.7067
  0
LINE
  8
1-2
  6
CONTINUOUS
 62
    3
 10
735.68935
 20
1698.7067
 11
735.89151
 21
1699.142
  0
LINE
  8
1-2
  6
CONTINUOUS
 62
    3
 10
735.89151
 20
1699.142
 11
736.11185
 21
1699.544
  0
LINE
  8
1-2
  6
CONTINUOUS
 62
    3
 10
736.11185
 20
1699.544
 11
736.34692
 21
1699.9125
  0
LINE
  8
1-2
  6
CONTINUOUS
 62
    3
 10
736.34692
 20
1699.9125
 11
736.59312
 21
1700.2475
  0
LINE
  8
1-2
  6
CONTINUOUS
 62
    3
 10
736.59312
 20
1700.2475
 11
736.84687
 21
1700.5484
  0
LINE
  8
1-2
  6
CONTINUOUS
 62
    3
 10
736.84687
 20
1700.5484
 11
737.10458
 21
1700.8149
  0
LINE
  8
1-2
  6
CONTINUOUS
 62
    3
 10
737.10458
 20
1700.8149
 11
737.36266
 21
1701.0475
  0
LINE
  8
1-2
  6
CONTINUOUS
 62
    3
 10
737.36266
 20
1701.0475
 11
737.61753
 21
1701.2454
  0
LINE
  8
1-2
  6
CONTINUOUS
 62
    3
 10
737.61753
 20
1701.2454
 11
737.86558
 21
1701.4088
  0
LINE
  8
1-2
  6
CONTINUOUS
 62
    3
 10
760.34426
 20
1696.0334
 11
760.51177
 21
1696.7015
  0
LINE
  8
1-2
  6
CONTINUOUS
 62
    3
 10
760.51177
 20
1696.7015
 11
760.71579
 21
1697.3267
  0
LINE
  8
1-2
  6
CONTINUOUS
 62
    3
 10
760.71579
 20
1697.3267
 11
760.95469
 21
1697.9102
  0
LINE
  8
1-2
  6
CONTINUOUS
 62
    3
 10
760.95469
 20
1697.9102
 11
761.227
 21
1698.4516
  0
LINE
  8
1-2
  6
CONTINUOUS
 62
    3
 10
761.227
 20
1698.4516
 11
761.53135
 21
1698.9517
  0
LINE
  8
1-2
  6
CONTINUOUS
 62
    3
 10
761.53135
 20
1698.9517
 11
761.86613
 21
1699.4104
  0
LINE
  8
1-2
  6
CONTINUOUS
 62
    3
 10
761.86613
 20
1699.4104
 11
762.23012
 21
1699.8281
  0
LINE
  8
1-2
  6
CONTINUOUS
 62
    3
 10
762.23012
 20
1699.8281
 11
762.62169
 21
1700.2055
  0
LINE
  8
1-2
  6
CONTINUOUS
 62
    3
 10
762.62169
 20
1700.2055
 11
763.03937
 21
1700.5425
  0
LINE
  8
1-2
  6
CONTINUOUS
 62
    3
 10
763.03937
 20
1700.5425
 11
763.48179
 21
1700.8399
  0
LINE
  8
1-2
  6
CONTINUOUS
 62
    3
 10
763.48179
 20
1700.8399
 11
763.94747
 21
1701.0972
  0
LINE
  8
1-2
  6
CONTINUOUS
 62
    3
 10
763.94747
 20
1701.0972
 11
764.43493
 21
1701.3157
  0
LINE
  8
1-2
  6
CONTINUOUS
 62
    3
 10
764.43493
 20
1701.3157
 11
764.94255
 21
1701.4951
  0
LINE
  8
1-2
  6
CONTINUOUS
 62
    3
 10
764.94255
 20
1701.4951
 11
765.46923
 21
1701.6361
  0
LINE
  8
1-2
  6
CONTINUOUS
 62
    3
 10
791.86364
 20
1696.0334
 11
792.11701
 21
1696.7334
  0
LINE
  8
1-2
  6
CONTINUOUS
 62
    3
 10
792.11701
 20
1696.7334
 11
792.4137
 21
1697.3824
  0
LINE
  8
1-2
  6
CONTINUOUS
 62
    3
 10
792.4137
 20
1697.3824
 11
792.75021
 21
1697.98
  0
LINE
  8
1-2
  6
CONTINUOUS
 62
    3
 10
792.75021
 20
1697.98
 11
793.12311
 21
1698.5263
  0
LINE
  8
1-2
  6
CONTINUOUS
 62
    3
 10
793.12311
 20
1698.5263
 11
793.52841
 21
1699.021
  0
LINE
  8
1-2
  6
CONTINUOUS
 62
    3
 10
793.52841
 20
1699.021
 11
793.96254
 21
1699.4644
  0
LINE
  8
1-2
  6
CONTINUOUS
 62
    3
 10
793.96254
 20
1699.4644
 11
794.42167
 21
1699.8568
  0
LINE
  8
1-2
  6
CONTINUOUS
 62
    3
 10
794.42167
 20
1699.8568
 11
794.9017
 21
1700.1988
  0
LINE
  8
1-2
  6
CONTINUOUS
 62
    3
 10
794.9017
 20
1700.1988
 11
795.39893
 21
1700.491
  0
LINE
  8
1-2
  6
CONTINUOUS
 62
    3
 10
795.39893
 20
1700.491
 11
795.90878
 21
1700.734
  0
LINE
  8
1-2
  6
CONTINUOUS
 62
    3
 10
795.90878
 20
1700.734
 11
796.42742
 21
1700.9292
  0
LINE
  8
1-2
  6
CONTINUOUS
 62
    3
 10
796.42742
 20
1700.9292
 11
796.95013
 21
1701.0782
  0
LINE
  8
1-2
  6
CONTINUOUS
 62
    3
 10
796.95013
 20
1701.0782
 11
797.4726
 21
1701.1814
  0
LINE
  8
1-2
  6
CONTINUOUS
 62
    3
 10
797.4726
 20
1701.1814
 11
797.99049
 21
1701.241
  0
LINE
  8
1-2
  6
CONTINUOUS
 62
    3
 10
797.99049
 20
1701.241
 11
798.49886
 21
1701.2588
  0
LINE
  8
1-2
  6
CONTINUOUS
 62
    3
 10
798.49886
 20
1701.2588
 11
798.99312
 21
1701.2368
  0
LINE
  8
1-2
  6
CONTINUOUS
 62
    3
 10
798.99312
 20
1701.2368
 11
799.4687
 21
1701.1774
  0
LINE
  8
1-2
  6
CONTINUOUS
 62
    3
 10
799.4687
 20
1701.1774
 11
799.92028
 21
1701.0824
  0
LINE
  8
1-2
  6
CONTINUOUS
 62
    3
 10
799.92028
 20
1701.0824
 11
800.3429
 21
1700.9545
  0
LINE
  8
1-2
  6
CONTINUOUS
 62
    3
 10
716.6345
 20
1696.0334
 11
708.33302
 21
1696.0334
  0
LINE
  8
1-2
  6
CONTINUOUS
 62
    3
 10
635.32577
 20
1779.3667
 11
716.6345
 21
1696.0334
  0
LINE
  8
1-2
  6
CONTINUOUS
 62
    3
 10
721.99813
 20
1696.0334
 11
641.99749
 21
1779.3667
  0
LINE
  8
1-2
  6
CONTINUOUS
 62
    3
 10
658.27124
 20
1779.3667
 11
735.08077
 21
1696.0334
  0
LINE
  8
1-2
  6
CONTINUOUS
 62
    3
 10
735.08077
 20
1696.0334
 11
721.99813
 21
1696.0334
  0
LINE
  8
1-2
  6
CONTINUOUS
 62
    3
 10
742.7686
 20
1696.0334
 11
667.83392
 21
1779.3667
  0
LINE
  8
1-2
  6
CONTINUOUS
 62
    3
 10
760.34426
 20
1696.0334
 11
742.7686
 21
1696.0334
  0
LINE
  8
1-2
  6
CONTINUOUS
 62
    3
 10
689.69647
 20
1779.3667
 11
760.34426
 21
1696.0334
  0
LINE
  8
1-2
  6
CONTINUOUS
 62
    3
 10
770.18989
 20
1696.0334
 11
701.94338
 21
1779.3667
  0
LINE
  8
1-2
  6
CONTINUOUS
 62
    3
 10
791.87774
 20
1696.0334
 11
770.18989
 21
1696.0334
  0
LINE
  8
1-2
  6
CONTINUOUS
 62
    3
 10
728.92113
 20
1779.3667
 11
791.87774
 21
1696.0334
  0
LINE
  8
1-2
  6
CONTINUOUS
 62
    3
 10
803.668
 20
1696.0334
 11
743.58701
 21
1779.3667
  0
LINE
  8
1-2
  6
CONTINUOUS
 62
    3
 10
828.99891
 20
1696.0334
 11
803.668
 21
1696.0334
  0
LINE
  8
1-2
  6
CONTINUOUS
 62
    3
 10
775.09625
 20
1779.3667
 11
828.99891
 21
1696.0334
  0
LINE
  8
1-2
  6
CONTINUOUS
 62
    3
 10
842.47869
 20
1696.0334
 11
791.86364
 21
1779.3667
  0
LINE
  8
1-2
  6
CONTINUOUS
 62
    3
 10
870.90409
 20
1696.0334
 11
842.47869
 21
1696.0334
  0
LINE
  8
1-2
  6
CONTINUOUS
 62
    3
 10
885.78141
 20
1696.0334
 11
845.72807
 21
1779.3667
  0
LINE
  8
1-2
  6
CONTINUOUS
 62
    3
 10
916.68615
 20
1696.0334
 11
885.78141
 21
1696.0334
  0
LINE
  8
1-2
  6
CONTINUOUS
 62
    3
 10
884.17057
 20
1779.3667
 11
916.68615
 21
1696.0334
  0
LINE
  8
1-2
  6
CONTINUOUS
 62
    3
 10
904.01426
 20
1779.3667
 11
932.63909
 21
1696.0334
  0
LINE
  8
1-2
  6
CONTINUOUS
 62
    3
 10
965.35397
 20
1696.0334
 11
932.63909
 21
1696.0334
  0
LINE
  8
1-2
  6
CONTINUOUS
 62
    3
 10
965.35397
 20
1696.0334
 11
944.70858
 21
1779.3667
  0
LINE
  8
1-2
  6
CONTINUOUS
 62
    3
 10
965.46087
 20
1779.3667
 11
982.03736
 21
1696.0334
  0
LINE
  8
1-2
  6
CONTINUOUS
 62
    3
 10
1015.8543
 20
1696.0334
 11
982.03736
 21
1696.0334
  0
LINE
  8
1-2
  6
CONTINUOUS
 62
    3
 10
1015.8543
 20
1696.0334
 11
1007.526
 21
1779.3667
  0
LINE
  8
1-2
  6
CONTINUOUS
 62
    3
 10
1032.9065
 20
1696.0334
 11
1028.7374
 21
1779.3667
  0
LINE
  8
1-2
  6
CONTINUOUS
 62
    3
 10
1050
 20
1696.0334
 11
1032.9065
 21
1696.0334
  0
LINE
  8
1-2
  6
CONTINUOUS
 62
    3
 10
1475.0001
 20
1779.3664
 11
1391.667
 21
1696.0334
  0
LINE
  8
1-2
  6
CONTINUOUS
 62
    3
 10
1124.0393
 20
1702.9214
 11
1123.3535
 21
1702.7378
  0
LINE
  8
1-2
  6
CONTINUOUS
 62
    3
 10
1123.3535
 20
1702.7378
 11
1122.7092
 21
1702.4881
  0
LINE
  8
1-2
  6
CONTINUOUS
 62
    3
 10
1122.7092
 20
1702.4881
 11
1122.1061
 21
1702.1768
  0
LINE
  8
1-2
  6
CONTINUOUS
 62
    3
 10
1122.1061
 20
1702.1768
 11
1121.5431
 21
1701.8089
  0
LINE
  8
1-2
  6
CONTINUOUS
 62
    3
 10
1121.5431
 20
1701.8089
 11
1121.0198
 21
1701.3887
  0
LINE
  8
1-2
  6
CONTINUOUS
 62
    3
 10
1121.0198
 20
1701.3887
 11
1120.5352
 21
1700.921
  0
LINE
  8
1-2
  6
CONTINUOUS
 62
    3
 10
1120.5352
 20
1700.921
 11
1120.0886
 21
1700.4106
  0
LINE
  8
1-2
  6
CONTINUOUS
 62
    3
 10
1120.0886
 20
1700.4106
 11
1119.6791
 21
1699.862
  0
LINE
  8
1-2
  6
CONTINUOUS
 62
    3
 10
1119.6791
 20
1699.862
 11
1119.3063
 21
1699.2803
  0
LINE
  8
1-2
  6
CONTINUOUS
 62
    3
 10
1119.3063
 20
1699.2803
 11
1118.9689
 21
1698.6696
  0
LINE
  8
1-2
  6
CONTINUOUS
 62
    3
 10
1118.9689
 20
1698.6696
 11
1118.667
 21
1698.0347
  0
LINE
  8
1-2
  6
CONTINUOUS
 62
    3
 10
1118.667
 20
1698.0347
 11
1118.3989
 21
1697.3807
  0
LINE
  8
1-2
  6
CONTINUOUS
 62
    3
 10
1118.3989
 20
1697.3807
 11
1118.1644
 21
1696.7121
  0
LINE
  8
1-2
  6
CONTINUOUS
 62
    3
 10
1118.1644
 20
1696.7121
 11
1117.9627
 21
1696.0334
  0
LINE
  8
1-2
  6
CONTINUOUS
 62
    3
 10
1127.8068
 20
1702.9582
 11
1128.6001
 21
1702.7034
  0
LINE
  8
1-2
  6
CONTINUOUS
 62
    3
 10
1128.6001
 20
1702.7034
 11
1129.3441
 21
1702.402
  0
LINE
  8
1-2
  6
CONTINUOUS
 62
    3
 10
1129.3441
 20
1702.402
 11
1130.0402
 21
1702.057
  0
LINE
  8
1-2
  6
CONTINUOUS
 62
    3
 10
1130.0402
 20
1702.057
 11
1130.6879
 21
1701.6703
  0
LINE
  8
1-2
  6
CONTINUOUS
 62
    3
 10
1130.6879
 20
1701.6703
 11
1131.2881
 21
1701.2447
  0
LINE
  8
1-2
  6
CONTINUOUS
 62
    3
 10
1131.2881
 20
1701.2447
 11
1131.842
 21
1700.7822
  0
LINE
  8
1-2
  6
CONTINUOUS
 62
    3
 10
1131.842
 20
1700.7822
 11
1132.3492
 21
1700.2849
  0
LINE
  8
1-2
  6
CONTINUOUS
 62
    3
 10
1132.3492
 20
1700.2849
 11
1132.8103
 21
1699.7556
  0
LINE
  8
1-2
  6
CONTINUOUS
 62
    3
 10
1132.8103
 20
1699.7556
 11
1133.2266
 21
1699.1964
  0
LINE
  8
1-2
  6
CONTINUOUS
 62
    3
 10
1133.2266
 20
1699.1964
 11
1133.5979
 21
1698.6097
  0
LINE
  8
1-2
  6
CONTINUOUS
 62
    3
 10
1133.5979
 20
1698.6097
 11
1133.925
 21
1697.9973
  0
LINE
  8
1-2
  6
CONTINUOUS
 62
    3
 10
1133.925
 20
1697.9973
 11
1134.2084
 21
1697.3624
  0
LINE
  8
1-2
  6
CONTINUOUS
 62
    3
 10
1134.2084
 20
1697.3624
 11
1134.4484
 21
1696.7071
  0
LINE
  8
1-2
  6
CONTINUOUS
 62
    3
 10
1134.4484
 20
1696.7071
 11
1134.6458
 21
1696.0334
  0
LINE
  8
1-2
  6
CONTINUOUS
 62
    3
 10
1167.361
 20
1696.0334
 11
1168.1293
 21
1697.152
  0
LINE
  8
1-2
  6
CONTINUOUS
 62
    3
 10
1168.1293
 20
1697.152
 11
1168.9064
 21
1698.1472
  0
LINE
  8
1-2
  6
CONTINUOUS
 62
    3
 10
1168.9064
 20
1698.1472
 11
1169.6895
 21
1699.0257
  0
LINE
  8
1-2
  6
CONTINUOUS
 62
    3
 10
1169.6895
 20
1699.0257
 11
1170.4751
 21
1699.7942
  0
LINE
  8
1-2
  6
CONTINUOUS
 62
    3
 10
1170.4751
 20
1699.7942
 11
1171.2607
 21
1700.4601
  0
LINE
  8
1-2
  6
CONTINUOUS
 62
    3
 10
1171.2607
 20
1700.4601
 11
1172.0431
 21
1701.0297
  0
LINE
  8
1-2
  6
CONTINUOUS
 62
    3
 10
1172.0431
 20
1701.0297
 11
1172.8192
 21
1701.5102
  0
LINE
  8
1-2
  6
CONTINUOUS
 62
    3
 10
1172.8192
 20
1701.5102
 11
1173.5857
 21
1701.9086
  0
LINE
  8
1-2
  6
CONTINUOUS
 62
    3
 10
1173.5857
 20
1701.9086
 11
1174.3398
 21
1702.2317
  0
LINE
  8
1-2
  6
CONTINUOUS
 62
    3
 10
1174.3398
 20
1702.2317
 11
1175.0784
 21
1702.4861
  0
LINE
  8
1-2
  6
CONTINUOUS
 62
    3
 10
1175.0784
 20
1702.4861
 11
1175.7984
 21
1702.6794
  0
LINE
  8
1-2
  6
CONTINUOUS
 62
    3
 10
1175.7984
 20
1702.6794
 11
1176.4966
 21
1702.8177
  0
LINE
  8
1-2
  6
CONTINUOUS
 62
    3
 10
1176.4966
 20
1702.8177
 11
1177.1705
 21
1702.9087
  0
LINE
  8
1-2
  6
CONTINUOUS
 62
    3
 10
1177.1705
 20
1702.9087
 11
1177.8163
 21
1702.9582
  0
LINE
  8
1-2
  6
CONTINUOUS
 62
    3
 10
1183.314
 20
1696.0334
 11
1183.2909
 21
1696.838
  0
LINE
  8
1-2
  6
CONTINUOUS
 62
    3
 10
1183.2909
 20
1696.838
 11
1183.2212
 21
1697.5818
  0
LINE
  8
1-2
  6
CONTINUOUS
 62
    3
 10
1183.2212
 20
1697.5818
 11
1183.1028
 21
1698.2675
  0
LINE
  8
1-2
  6
CONTINUOUS
 62
    3
 10
1183.1028
 20
1698.2675
 11
1182.9325
 21
1698.899
  0
LINE
  8
1-2
  6
CONTINUOUS
 62
    3
 10
1182.9325
 20
1698.899
 11
1182.7082
 21
1699.4795
  0
LINE
  8
1-2
  6
CONTINUOUS
 62
    3
 10
1182.7082
 20
1699.4795
 11
1182.4267
 21
1700.012
  0
LINE
  8
1-2
  6
CONTINUOUS
 62
    3
 10
1182.4267
 20
1700.012
 11
1182.0859
 21
1700.5002
  0
LINE
  8
1-2
  6
CONTINUOUS
 62
    3
 10
1182.0859
 20
1700.5002
 11
1181.6829
 21
1700.9475
  0
LINE
  8
1-2
  6
CONTINUOUS
 62
    3
 10
1181.6829
 20
1700.9475
 11
1181.2152
 21
1701.357
  0
LINE
  8
1-2
  6
CONTINUOUS
 62
    3
 10
1181.2152
 20
1701.357
 11
1180.6804
 21
1701.7324
  0
LINE
  8
1-2
  6
CONTINUOUS
 62
    3
 10
1180.6804
 20
1701.7324
 11
1180.0757
 21
1702.0768
  0
LINE
  8
1-2
  6
CONTINUOUS
 62
    3
 10
1180.0757
 20
1702.0768
 11
1179.3987
 21
1702.3938
  0
LINE
  8
1-2
  6
CONTINUOUS
 62
    3
 10
1179.3987
 20
1702.3938
 11
1178.6461
 21
1702.6868
  0
LINE
  8
1-2
  6
CONTINUOUS
 62
    3
 10
1178.6461
 20
1702.6868
 11
1177.8163
 21
1702.9582
  0
LINE
  8
1-2
  6
CONTINUOUS
 62
    3
 10
1229.096
 20
1696.0334
 11
1228.7039
 21
1696.9783
  0
LINE
  8
1-2
  6
CONTINUOUS
 62
    3
 10
1228.7039
 20
1696.9783
 11
1228.2961
 21
1697.836
  0
LINE
  8
1-2
  6
CONTINUOUS
 62
    3
 10
1228.2961
 20
1697.836
 11
1227.8721
 21
1698.6097
  0
LINE
  8
1-2
  6
CONTINUOUS
 62
    3
 10
1227.8721
 20
1698.6097
 11
1227.4326
 21
1699.304
  0
LINE
  8
1-2
  6
CONTINUOUS
 62
    3
 10
1227.4326
 20
1699.304
 11
1226.9783
 21
1699.9231
  0
LINE
  8
1-2
  6
CONTINUOUS
 62
    3
 10
1226.9783
 20
1699.9231
 11
1226.5091
 21
1700.4715
  0
LINE
  8
1-2
  6
CONTINUOUS
 62
    3
 10
1226.5091
 20
1700.4715
 11
1226.0259
 21
1700.9532
  0
LINE
  8
1-2
  6
CONTINUOUS
 62
    3
 10
1226.0259
 20
1700.9532
 11
1225.5285
 21
1701.3721
  0
LINE
  8
1-2
  6
CONTINUOUS
 62
    3
 10
1225.5285
 20
1701.3721
 11
1225.0182
 21
1701.7331
  0
LINE
  8
1-2
  6
CONTINUOUS
 62
    3
 10
1225.0182
 20
1701.7331
 11
1224.4946
 21
1702.0397
  0
LINE
  8
1-2
  6
CONTINUOUS
 62
    3
 10
1224.4946
 20
1702.0397
 11
1223.9585
 21
1702.2966
  0
LINE
  8
1-2
  6
CONTINUOUS
 62
    3
 10
1223.9585
 20
1702.2966
 11
1223.4098
 21
1702.5079
  0
LINE
  8
1-2
  6
CONTINUOUS
 62
    3
 10
1223.4098
 20
1702.5079
 11
1222.8495
 21
1702.6774
  0
LINE
  8
1-2
  6
CONTINUOUS
 62
    3
 10
1222.8495
 20
1702.6774
 11
1222.2779
 21
1702.8103
  0
LINE
  8
1-2
  6
CONTINUOUS
 62
    3
 10
1221.0209
 20
1702.8103
 11
1220.4251
 21
1702.6972
  0
LINE
  8
1-2
  6
CONTINUOUS
 62
    3
 10
1220.4251
 20
1702.6972
 11
1219.8337
 21
1702.517
  0
LINE
  8
1-2
  6
CONTINUOUS
 62
    3
 10
1219.8337
 20
1702.517
 11
1219.2472
 21
1702.2701
  0
LINE
  8
1-2
  6
CONTINUOUS
 62
    3
 10
1219.2472
 20
1702.2701
 11
1218.6653
 21
1701.9563
  0
LINE
  8
1-2
  6
CONTINUOUS
 62
    3
 10
1218.6653
 20
1701.9563
 11
1218.0886
 21
1701.5758
  0
LINE
  8
1-2
  6
CONTINUOUS
 62
    3
 10
1218.0886
 20
1701.5758
 11
1217.5164
 21
1701.1284
  0
LINE
  8
1-2
  6
CONTINUOUS
 62
    3
 10
1217.5164
 20
1701.1284
 11
1216.9493
 21
1700.614
  0
LINE
  8
1-2
  6
CONTINUOUS
 62
    3
 10
1216.9493
 20
1700.614
 11
1216.3868
 21
1700.0327
  0
LINE
  8
1-2
  6
CONTINUOUS
 62
    3
 10
1216.3868
 20
1700.0327
 11
1215.8295
 21
1699.3849
  0
LINE
  8
1-2
  6
CONTINUOUS
 62
    3
 10
1271.0009
 20
1696.0334
 11
1270.8877
 21
1696.7537
  0
LINE
  8
1-2
  6
CONTINUOUS
 62
    3
 10
1270.8877
 20
1696.7537
 11
1270.7266
 21
1697.4245
  0
LINE
  8
1-2
  6
CONTINUOUS
 62
    3
 10
1270.7266
 20
1697.4245
 11
1270.5221
 21
1698.0475
  0
LINE
  8
1-2
  6
CONTINUOUS
 62
    3
 10
1270.5221
 20
1698.0475
 11
1270.2774
 21
1698.6248
  0
LINE
  8
1-2
  6
CONTINUOUS
 62
    3
 10
1270.2774
 20
1698.6248
 11
1269.9963
 21
1699.158
  0
LINE
  8
1-2
  6
CONTINUOUS
 62
    3
 10
1269.9963
 20
1699.158
 11
1269.6817
 21
1699.6497
  0
LINE
  8
1-2
  6
CONTINUOUS
 62
    3
 10
1269.6817
 20
1699.6497
 11
1269.3372
 21
1700.101
  0
LINE
  8
1-2
  6
CONTINUOUS
 62
    3
 10
1269.3372
 20
1700.101
 11
1268.9659
 21
1700.5133
  0
LINE
  8
1-2
  6
CONTINUOUS
 62
    3
 10
1268.9659
 20
1700.5133
 11
1268.5702
 21
1700.8886
  0
LINE
  8
1-2
  6
CONTINUOUS
 62
    3
 10
1268.5702
 20
1700.8886
 11
1268.1529
 21
1701.2274
  0
LINE
  8
1-2
  6
CONTINUOUS
 62
    3
 10
1268.1529
 20
1701.2274
 11
1267.7164
 21
1701.5315
  0
LINE
  8
1-2
  6
CONTINUOUS
 62
    3
 10
1267.7164
 20
1701.5315
 11
1267.2629
 21
1701.8019
  0
LINE
  8
1-2
  6
CONTINUOUS
 62
    3
 10
1267.2629
 20
1701.8019
 11
1266.7944
 21
1702.0395
  0
LINE
  8
1-2
  6
CONTINUOUS
 62
    3
 10
1266.7944
 20
1702.0395
 11
1266.3128
 21
1702.2449
  0
LINE
  8
1-2
  6
CONTINUOUS
 62
    3
 10
1266.3128
 20
1702.2449
 11
1265.8195
 21
1702.4186
  0
LINE
  8
1-2
  6
CONTINUOUS
 62
    3
 10
1265.8195
 20
1702.4186
 11
1265.3163
 21
1702.5621
  0
LINE
  8
1-2
  6
CONTINUOUS
 62
    3
 10
1265.3163
 20
1702.5621
 11
1264.8046
 21
1702.6747
  0
LINE
  8
1-2
  6
CONTINUOUS
 62
    3
 10
1264.8046
 20
1702.6747
 11
1264.285
 21
1702.7573
  0
LINE
  8
1-2
  6
CONTINUOUS
 62
    3
 10
1264.285
 20
1702.7573
 11
1263.7589
 21
1702.8103
  0
LINE
  8
1-2
  6
CONTINUOUS
 62
    3
 10
1263.6262
 20
1702.8043
 11
1263.3299
 21
1702.7749
  0
LINE
  8
1-2
  6
CONTINUOUS
 62
    3
 10
1263.3299
 20
1702.7749
 11
1263.0386
 21
1702.7328
  0
LINE
  8
1-2
  6
CONTINUOUS
 62
    3
 10
1263.0386
 20
1702.7328
 11
1262.7525
 21
1702.6779
  0
LINE
  8
1-2
  6
CONTINUOUS
 62
    3
 10
1262.7525
 20
1702.6779
 11
1262.4716
 21
1702.6101
  0
LINE
  8
1-2
  6
CONTINUOUS
 62
    3
 10
1262.4716
 20
1702.6101
 11
1262.1957
 21
1702.5299
  0
LINE
  8
1-2
  6
CONTINUOUS
 62
    3
 10
1262.1957
 20
1702.5299
 11
1261.925
 21
1702.4366
  0
LINE
  8
1-2
  6
CONTINUOUS
 62
    3
 10
1261.925
 20
1702.4366
 11
1261.6594
 21
1702.3307
  0
LINE
  8
1-2
  6
CONTINUOUS
 62
    3
 10
1261.6594
 20
1702.3307
 11
1261.399
 21
1702.2119
  0
LINE
  8
1-2
  6
CONTINUOUS
 62
    3
 10
1261.399
 20
1702.2119
 11
1261.1433
 21
1702.0803
  0
LINE
  8
1-2
  6
CONTINUOUS
 62
    3
 10
1383.3657
 20
1696.0334
 11
1383.2642
 21
1696.7913
  0
LINE
  8
1-2
  6
CONTINUOUS
 62
    3
 10
1383.2642
 20
1696.7913
 11
1383.1566
 21
1697.4839
  0
LINE
  8
1-2
  6
CONTINUOUS
 62
    3
 10
1383.1566
 20
1697.4839
 11
1383.0438
 21
1698.1109
  0
LINE
  8
1-2
  6
CONTINUOUS
 62
    3
 10
1383.0438
 20
1698.1109
 11
1382.9245
 21
1698.6728
  0
LINE
  8
1-2
  6
CONTINUOUS
 62
    3
 10
1382.9245
 20
1698.6728
 11
1382.7995
 21
1699.1692
  0
LINE
  8
1-2
  6
CONTINUOUS
 62
    3
 10
1382.7995
 20
1699.1692
 11
1382.6686
 21
1699.6
  0
LINE
  8
1-2
  6
CONTINUOUS
 62
    3
 10
1382.6686
 20
1699.6
 11
1382.5318
 21
1699.9654
  0
LINE
  8
1-2
  6
CONTINUOUS
 62
    3
 10
1382.5318
 20
1699.9654
 11
1382.3893
 21
1700.2656
  0
LINE
  8
1-2
  6
CONTINUOUS
 62
    3
 10
1382.3893
 20
1700.2656
 11
1382.2408
 21
1700.5002
  0
LINE
  8
1-2
  6
CONTINUOUS
 62
    3
 10
1364.9192
 20
1696.0334
 11
1364.8631
 21
1696.6337
  0
LINE
  8
1-2
  6
CONTINUOUS
 62
    3
 10
1364.8631
 20
1696.6337
 11
1364.7703
 21
1697.201
  0
LINE
  8
1-2
  6
CONTINUOUS
 62
    3
 10
1364.7703
 20
1697.201
 11
1364.6449
 21
1697.7358
  0
LINE
  8
1-2
  6
CONTINUOUS
 62
    3
 10
1364.6449
 20
1697.7358
 11
1364.4907
 21
1698.2378
  0
LINE
  8
1-2
  6
CONTINUOUS
 62
    3
 10
1364.4907
 20
1698.2378
 11
1364.3105
 21
1698.7067
  0
LINE
  8
1-2
  6
CONTINUOUS
 62
    3
 10
1364.3105
 20
1698.7067
 11
1364.1085
 21
1699.142
  0
LINE
  8
1-2
  6
CONTINUOUS
 62
    3
 10
1364.1085
 20
1699.142
 11
1363.8882
 21
1699.544
  0
LINE
  8
1-2
  6
CONTINUOUS
 62
    3
 10
1363.8882
 20
1699.544
 11
1363.6531
 21
1699.9125
  0
LINE
  8
1-2
  6
CONTINUOUS
 62
    3
 10
1363.6531
 20
1699.9125
 11
1363.4069
 21
1700.2475
  0
LINE
  8
1-2
  6
CONTINUOUS
 62
    3
 10
1363.4069
 20
1700.2475
 11
1363.1533
 21
1700.5484
  0
LINE
  8
1-2
  6
CONTINUOUS
 62
    3
 10
1363.1533
 20
1700.5484
 11
1362.8953
 21
1700.8149
  0
LINE
  8
1-2
  6
CONTINUOUS
 62
    3
 10
1362.8953
 20
1700.8149
 11
1362.6374
 21
1701.0475
  0
LINE
  8
1-2
  6
CONTINUOUS
 62
    3
 10
1362.6374
 20
1701.0475
 11
1362.3825
 21
1701.2454
  0
LINE
  8
1-2
  6
CONTINUOUS
 62
    3
 10
1362.3825
 20
1701.2454
 11
1362.1345
 21
1701.4088
  0
LINE
  8
1-2
  6
CONTINUOUS
 62
    3
 10
1339.6558
 20
1696.0334
 11
1339.4883
 21
1696.7015
  0
LINE
  8
1-2
  6
CONTINUOUS
 62
    3
 10
1339.4883
 20
1696.7015
 11
1339.2844
 21
1697.3267
  0
LINE
  8
1-2
  6
CONTINUOUS
 62
    3
 10
1339.2844
 20
1697.3267
 11
1339.0454
 21
1697.9102
  0
LINE
  8
1-2
  6
CONTINUOUS
 62
    3
 10
1339.0454
 20
1697.9102
 11
1338.7731
 21
1698.4516
  0
LINE
  8
1-2
  6
CONTINUOUS
 62
    3
 10
1338.7731
 20
1698.4516
 11
1338.4687
 21
1698.9517
  0
LINE
  8
1-2
  6
CONTINUOUS
 62
    3
 10
1338.4687
 20
1698.9517
 11
1338.1338
 21
1699.4104
  0
LINE
  8
1-2
  6
CONTINUOUS
 62
    3
 10
1338.1338
 20
1699.4104
 11
1337.7701
 21
1699.8281
  0
LINE
  8
1-2
  6
CONTINUOUS
 62
    3
 10
1337.7701
 20
1699.8281
 11
1337.3782
 21
1700.2055
  0
LINE
  8
1-2
  6
CONTINUOUS
 62
    3
 10
1337.3782
 20
1700.2055
 11
1336.9607
 21
1700.5425
  0
LINE
  8
1-2
  6
CONTINUOUS
 62
    3
 10
1336.9607
 20
1700.5425
 11
1336.5183
 21
1700.8399
  0
LINE
  8
1-2
  6
CONTINUOUS
 62
    3
 10
1336.5183
 20
1700.8399
 11
1336.0526
 21
1701.0972
  0
LINE
  8
1-2
  6
CONTINUOUS
 62
    3
 10
1336.0526
 20
1701.0972
 11
1335.5651
 21
1701.3157
  0
LINE
  8
1-2
  6
CONTINUOUS
 62
    3
 10
1335.5651
 20
1701.3157
 11
1335.0573
 21
1701.4951
  0
LINE
  8
1-2
  6
CONTINUOUS
 62
    3
 10
1335.0573
 20
1701.4951
 11
1334.5308
 21
1701.6361
  0
LINE
  8
1-2
  6
CONTINUOUS
 62
    3
 10
1308.1364
 20
1696.0334
 11
1307.883
 21
1696.7334
  0
LINE
  8
1-2
  6
CONTINUOUS
 62
    3
 10
1307.883
 20
1696.7334
 11
1307.5864
 21
1697.3824
  0
LINE
  8
1-2
  6
CONTINUOUS
 62
    3
 10
1307.5864
 20
1697.3824
 11
1307.2498
 21
1697.98
  0
LINE
  8
1-2
  6
CONTINUOUS
 62
    3
 10
1307.2498
 20
1697.98
 11
1306.8769
 21
1698.5263
  0
LINE
  8
1-2
  6
CONTINUOUS
 62
    3
 10
1306.8769
 20
1698.5263
 11
1306.4716
 21
1699.021
  0
LINE
  8
1-2
  6
CONTINUOUS
 62
    3
 10
1306.4716
 20
1699.021
 11
1306.0375
 21
1699.4644
  0
LINE
  8
1-2
  6
CONTINUOUS
 62
    3
 10
1306.0375
 20
1699.4644
 11
1305.5784
 21
1699.8568
  0
LINE
  8
1-2
  6
CONTINUOUS
 62
    3
 10
1305.5784
 20
1699.8568
 11
1305.0981
 21
1700.1988
  0
LINE
  8
1-2
  6
CONTINUOUS
 62
    3
 10
1305.0981
 20
1700.1988
 11
1304.601
 21
1700.491
  0
LINE
  8
1-2
  6
CONTINUOUS
 62
    3
 10
1304.601
 20
1700.491
 11
1304.091
 21
1700.734
  0
LINE
  8
1-2
  6
CONTINUOUS
 62
    3
 10
1304.091
 20
1700.734
 11
1303.5726
 21
1700.9292
  0
LINE
  8
1-2
  6
CONTINUOUS
 62
    3
 10
1303.5726
 20
1700.9292
 11
1303.0497
 21
1701.0782
  0
LINE
  8
1-2
  6
CONTINUOUS
 62
    3
 10
1303.0497
 20
1701.0782
 11
1302.5272
 21
1701.1814
  0
LINE
  8
1-2
  6
CONTINUOUS
 62
    3
 10
1302.5272
 20
1701.1814
 11
1302.0097
 21
1701.241
  0
LINE
  8
1-2
  6
CONTINUOUS
 62
    3
 10
1302.0097
 20
1701.241
 11
1301.5012
 21
1701.2588
  0
LINE
  8
1-2
  6
CONTINUOUS
 62
    3
 10
1301.5012
 20
1701.2588
 11
1301.0067
 21
1701.2368
  0
LINE
  8
1-2
  6
CONTINUOUS
 62
    3
 10
1301.0067
 20
1701.2368
 11
1300.5314
 21
1701.1774
  0
LINE
  8
1-2
  6
CONTINUOUS
 62
    3
 10
1300.5314
 20
1701.1774
 11
1300.0798
 21
1701.0824
  0
LINE
  8
1-2
  6
CONTINUOUS
 62
    3
 10
1300.0798
 20
1701.0824
 11
1299.6571
 21
1700.9545
  0
LINE
  8
1-2
  6
CONTINUOUS
 62
    3
 10
1383.3657
 20
1696.0334
 11
1391.667
 21
1696.0334
  0
LINE
  8
1-2
  6
CONTINUOUS
 62
    3
 10
1464.6744
 20
1779.3667
 11
1383.3657
 21
1696.0334
  0
LINE
  8
1-2
  6
CONTINUOUS
 62
    3
 10
1378.0019
 20
1696.0334
 11
1458.0022
 21
1779.3667
  0
LINE
  8
1-2
  6
CONTINUOUS
 62
    3
 10
1441.7288
 20
1779.3667
 11
1364.9192
 21
1696.0334
  0
LINE
  8
1-2
  6
CONTINUOUS
 62
    3
 10
1364.9192
 20
1696.0334
 11
1378.0019
 21
1696.0334
  0
LINE
  8
1-2
  6
CONTINUOUS
 62
    3
 10
1357.2314
 20
1696.0334
 11
1432.1658
 21
1779.3667
  0
LINE
  8
1-2
  6
CONTINUOUS
 62
    3
 10
1339.6558
 20
1696.0334
 11
1357.2314
 21
1696.0334
  0
LINE
  8
1-2
  6
CONTINUOUS
 62
    3
 10
1410.3035
 20
1779.3667
 11
1339.6558
 21
1696.0334
  0
LINE
  8
1-2
  6
CONTINUOUS
 62
    3
 10
1329.8102
 20
1696.0334
 11
1398.0564
 21
1779.3667
  0
LINE
  8
1-2
  6
CONTINUOUS
 62
    3
 10
1308.1222
 20
1696.0334
 11
1329.8102
 21
1696.0334
  0
LINE
  8
1-2
  6
CONTINUOUS
 62
    3
 10
1371.0789
 20
1779.3667
 11
1308.1222
 21
1696.0334
  0
LINE
  8
1-2
  6
CONTINUOUS
 62
    3
 10
1296.3322
 20
1696.0334
 11
1356.413
 21
1779.3667
  0
LINE
  8
1-2
  6
CONTINUOUS
 62
    3
 10
1271.0009
 20
1696.0334
 11
1296.3322
 21
1696.0334
  0
LINE
  8
1-2
  6
CONTINUOUS
 62
    3
 10
1324.9036
 20
1779.3667
 11
1271.0009
 21
1696.0334
  0
LINE
  8
1-2
  6
CONTINUOUS
 62
    3
 10
1257.5212
 20
1696.0334
 11
1308.1364
 21
1779.3667
  0
LINE
  8
1-2
  6
CONTINUOUS
 62
    3
 10
1229.096
 20
1696.0334
 11
1257.5212
 21
1696.0334
  0
LINE
  8
1-2
  6
CONTINUOUS
 62
    3
 10
1214.2186
 20
1696.0334
 11
1254.2719
 21
1779.3667
  0
LINE
  8
1-2
  6
CONTINUOUS
 62
    3
 10
1183.314
 20
1696.0334
 11
1214.2186
 21
1696.0334
  0
LINE
  8
1-2
  6
CONTINUOUS
 62
    3
 10
1215.8295
 20
1779.3667
 11
1183.314
 21
1696.0334
  0
LINE
  8
1-2
  6
CONTINUOUS
 62
    3
 10
1195.9858
 20
1779.3667
 11
1167.361
 21
1696.0334
  0
LINE
  8
1-2
  6
CONTINUOUS
 62
    3
 10
1134.6458
 20
1696.0334
 11
1167.361
 21
1696.0334
  0
LINE
  8
1-2
  6
CONTINUOUS
 62
    3
 10
1134.6458
 20
1696.0334
 11
1155.2915
 21
1779.3667
  0
LINE
  8
1-2
  6
CONTINUOUS
 62
    3
 10
1134.5391
 20
1779.3667
 11
1117.9627
 21
1696.0334
  0
LINE
  8
1-2
  6
CONTINUOUS
 62
    3
 10
1084.1457
 20
1696.0334
 11
1117.9627
 21
1696.0334
  0
LINE
  8
1-2
  6
CONTINUOUS
 62
    3
 10
1084.1457
 20
1696.0334
 11
1092.4739
 21
1779.3667
  0
LINE
  8
1-2
  6
CONTINUOUS
 62
    3
 10
1067.0934
 20
1696.0334
 11
1071.2625
 21
1779.3667
  0
LINE
  8
1-2
  6
CONTINUOUS
 62
    3
 10
1050
 20
1696.0334
 11
1067.0934
 21
1696.0334
  0
LINE
  8
1-2
  6
CONTINUOUS
 62
    3
 10
827.22217
 20
1779.3667
 11
870.90421
 21
1696.0331
  0
LINE
  8
1-2
  6
CONTINUOUS
 62
    3
 10
1272.7779
 20
1779.3667
 11
1229.0957
 21
1696.0331
  0
LINE
  8
1-2
  6
CONTINUOUS
 62
    3
 10
878.27915
 20
1696.0334
 11
878.27915
 21
1571.0337
  0
LINE
  8
1-2
  6
CONTINUOUS
 62
    3
 10
844.94579
 20
1696.0334
 11
844.94579
 21
1571.0337
  0
LINE
  8
1-2
  6
CONTINUOUS
 62
    3
 10
1221.7208
 20
1696.0334
 11
1221.7208
 21
1571.0337
  0
LINE
  8
1-2
  6
CONTINUOUS
 62
    3
 10
1255.0543
 20
1696.0334
 11
1255.0543
 21
1571.0337
  0
LINE
  8
1-8
  6
CONTINUOUS
 62
    7
 10
350.00036
 20
1504.3662
 11
350.00036
 21
2454.3671
  0
LINE
  8
1-8
  6
CONTINUOUS
 62
    7
 10
624.99999
 20
2599.807
 11
624.99999
 21
2378.6982
  0
LINE
  8
1-2
  6
CONTINUOUS
 62
    3
 10
616.66671
 20
1504.367
 11
1483.3333
 21
1504.3667
  0
LINE
  8
1-2
  6
CONTINUOUS
 62
    3
 10
1483.3333
 20
1504.3667
 11
1483.3333
 21
1404.3666
  0
LINE
  8
1-2
  6
CONTINUOUS
 62
    3
 10
616.66671
 20
1404.3669
 11
1483.3333
 21
1404.3666
  0
LINE
  8
1-2
  6
CONTINUOUS
 62
    3
 10
616.66671
 20
1504.367
 11
616.66671
 21
1404.3669
  0
LINE
  8
1-8
  6
CONTINUOUS
 62
    7
 10
350.00036
 20
1404.3669
 11
350.00036
 21
1504.367
  0
LINE
  8
1-8
  6
CONTINUOUS
 62
    7
 10
497.7199
 20
1404.3669
 11
350.00036
 21
1404.3669
  0
LINE
  8
1-8
  6
CONTINUOUS
 62
    7
 10
497.7199
 20
1504.367
 11
350.00036
 21
1504.367
  0
LINE
  8
1-2
  6
CONTINUOUS
 62
    3
 10
877.72204
 20
2322.5898
 11
877.87447
 21
2322.5789
  0
LINE
  8
1-2
  6
CONTINUOUS
 62
    3
 10
877.87447
 20
2322.5789
 11
878.02367
 21
2322.5712
  0
LINE
  8
1-2
  6
CONTINUOUS
 62
    3
 10
878.02367
 20
2322.5712
 11
878.16966
 21
2322.5658
  0
LINE
  8
1-2
  6
CONTINUOUS
 62
    3
 10
878.16966
 20
2322.5658
 11
878.31243
 21
2322.5628
  0
LINE
  8
1-2
  6
CONTINUOUS
 62
    3
 10
878.31243
 20
2322.5628
 11
878.45224
 21
2322.5628
  0
LINE
  8
1-2
  6
CONTINUOUS
 62
    3
 10
878.45224
 20
2322.5628
 11
878.58858
 21
2322.5658
  0
LINE
  8
1-2
  6
CONTINUOUS
 62
    3
 10
878.58858
 20
2322.5658
 11
878.72195
 21
2322.5712
  0
LINE
  8
1-2
  6
CONTINUOUS
 62
    3
 10
878.72195
 20
2322.5712
 11
878.8521
 21
2322.5789
  0
LINE
  8
1-2
  6
CONTINUOUS
 62
    3
 10
878.8521
 20
2322.5789
 11
878.97904
 21
2322.5898
  0
LINE
  8
1-2
  6
CONTINUOUS
 62
    3
 10
972.19321
 20
2322.442
 11
972.60136
 21
2322.4168
  0
LINE
  8
1-2
  6
CONTINUOUS
 62
    3
 10
972.60136
 20
2322.4168
 11
973.01211
 21
2322.3992
  0
LINE
  8
1-2
  6
CONTINUOUS
 62
    3
 10
973.01211
 20
2322.3992
 11
973.42546
 21
2322.3888
  0
LINE
  8
1-2
  6
CONTINUOUS
 62
    3
 10
973.42546
 20
2322.3888
 11
973.84153
 21
2322.3859
  0
LINE
  8
1-2
  6
CONTINUOUS
 62
    3
 10
973.84153
 20
2322.3859
 11
974.2602
 21
2322.3901
  0
LINE
  8
1-2
  6
CONTINUOUS
 62
    3
 10
974.2602
 20
2322.3901
 11
974.68134
 21
2322.4007
  0
LINE
  8
1-2
  6
CONTINUOUS
 62
    3
 10
974.68134
 20
2322.4007
 11
975.10508
 21
2322.4198
  0
LINE
  8
1-2
  6
CONTINUOUS
 62
    3
 10
975.10508
 20
2322.4198
 11
975.53155
 21
2322.4453
  0
LINE
  8
1-2
  6
CONTINUOUS
 62
    3
 10
975.53155
 20
2322.4453
 11
975.96061
 21
2322.4787
  0
LINE
  8
1-2
  6
CONTINUOUS
 62
    3
 10
1127.8068
 20
2322.442
 11
1127.3988
 21
2322.4168
  0
LINE
  8
1-2
  6
CONTINUOUS
 62
    3
 10
1127.3988
 20
2322.4168
 11
1126.9881
 21
2322.3992
  0
LINE
  8
1-2
  6
CONTINUOUS
 62
    3
 10
1126.9881
 20
2322.3992
 11
1126.5743
 21
2322.3888
  0
LINE
  8
1-2
  6
CONTINUOUS
 62
    3
 10
1126.5743
 20
2322.3888
 11
1126.1585
 21
2322.3859
  0
LINE
  8
1-2
  6
CONTINUOUS
 62
    3
 10
1126.1585
 20
2322.3859
 11
1125.7397
 21
2322.3901
  0
LINE
  8
1-2
  6
CONTINUOUS
 62
    3
 10
1125.7397
 20
2322.3901
 11
1125.3186
 21
2322.4007
  0
LINE
  8
1-2
  6
CONTINUOUS
 62
    3
 10
1125.3186
 20
2322.4007
 11
1124.8951
 21
2322.4198
  0
LINE
  8
1-2
  6
CONTINUOUS
 62
    3
 10
1124.8951
 20
2322.4198
 11
1124.4685
 21
2322.4453
  0
LINE
  8
1-2
  6
CONTINUOUS
 62
    3
 10
1124.4685
 20
2322.4453
 11
1124.0393
 21
2322.4787
  0
LINE
  8
1-2
  6
CONTINUOUS
 62
    3
 10
1263.6262
 20
2322.5959
 11
1263.3299
 21
2322.6251
  0
LINE
  8
1-2
  6
CONTINUOUS
 62
    3
 10
1263.3299
 20
2322.6251
 11
1263.0386
 21
2322.6672
  0
LINE
  8
1-2
  6
CONTINUOUS
 62
    3
 10
1263.0386
 20
2322.6672
 11
1262.7525
 21
2322.7224
  0
LINE
  8
1-2
  6
CONTINUOUS
 62
    3
 10
1262.7525
 20
2322.7224
 11
1262.4716
 21
2322.7902
  0
LINE
  8
1-2
  6
CONTINUOUS
 62
    3
 10
1262.4716
 20
2322.7902
 11
1262.1957
 21
2322.8701
  0
LINE
  8
1-2
  6
CONTINUOUS
 62
    3
 10
1262.1957
 20
2322.8701
 11
1261.925
 21
2322.9634
  0
LINE
  8
1-2
  6
CONTINUOUS
 62
    3
 10
1261.925
 20
2322.9634
 11
1261.6594
 21
2323.0693
  0
LINE
  8
1-2
  6
CONTINUOUS
 62
    3
 10
1261.6594
 20
2323.0693
 11
1261.399
 21
2323.1881
  0
LINE
  8
1-2
  6
CONTINUOUS
 62
    3
 10
1261.399
 20
2323.1881
 11
1261.1433
 21
2323.3197
  0
LINE
  8
1-2
  6
CONTINUOUS
 62
    3
 10
1222.2779
 20
2322.5898
 11
1222.1256
 21
2322.5789
  0
LINE
  8
1-2
  6
CONTINUOUS
 62
    3
 10
1222.1256
 20
2322.5789
 11
1221.9765
 21
2322.5712
  0
LINE
  8
1-2
  6
CONTINUOUS
 62
    3
 10
1221.9765
 20
2322.5712
 11
1221.8305
 21
2322.5658
  0
LINE
  8
1-2
  6
CONTINUOUS
 62
    3
 10
1221.8305
 20
2322.5658
 11
1221.6876
 21
2322.5628
  0
LINE
  8
1-2
  6
CONTINUOUS
 62
    3
 10
1221.6876
 20
2322.5628
 11
1221.5478
 21
2322.5628
  0
LINE
  8
1-2
  6
CONTINUOUS
 62
    3
 10
1221.5478
 20
2322.5628
 11
1221.4115
 21
2322.5658
  0
LINE
  8
1-2
  6
CONTINUOUS
 62
    3
 10
1221.4115
 20
2322.5658
 11
1221.2781
 21
2322.5712
  0
LINE
  8
1-2
  6
CONTINUOUS
 62
    3
 10
1221.2781
 20
2322.5712
 11
1221.148
 21
2322.5789
  0
LINE
  8
1-2
  6
CONTINUOUS
 62
    3
 10
1221.148
 20
2322.5789
 11
1221.0209
 21
2322.5898
  0
LINE
  8
1-2
  6
CONTINUOUS
 62
    3
 10
972.19321
 20
1702.9585
 11
972.60136
 21
1702.9835
  0
LINE
  8
1-2
  6
CONTINUOUS
 62
    3
 10
972.60136
 20
1702.9835
 11
973.01211
 21
1703.0008
  0
LINE
  8
1-2
  6
CONTINUOUS
 62
    3
 10
973.01211
 20
1703.0008
 11
973.42546
 21
1703.0114
  0
LINE
  8
1-2
  6
CONTINUOUS
 62
    3
 10
973.42546
 20
1703.0114
 11
973.84153
 21
1703.0144
  0
LINE
  8
1-2
  6
CONTINUOUS
 62
    3
 10
973.84153
 20
1703.0144
 11
974.2602
 21
1703.0104
  0
LINE
  8
1-2
  6
CONTINUOUS
 62
    3
 10
974.2602
 20
1703.0104
 11
974.68134
 21
1702.9993
  0
LINE
  8
1-2
  6
CONTINUOUS
 62
    3
 10
974.68134
 20
1702.9993
 11
975.10508
 21
1702.9805
  0
LINE
  8
1-2
  6
CONTINUOUS
 62
    3
 10
975.10508
 20
1702.9805
 11
975.53155
 21
1702.9548
  0
LINE
  8
1-2
  6
CONTINUOUS
 62
    3
 10
975.53155
 20
1702.9548
 11
975.96061
 21
1702.9216
  0
LINE
  8
1-2
  6
CONTINUOUS
 62
    3
 10
1127.8068
 20
1702.9585
 11
1127.3988
 21
1702.9835
  0
LINE
  8
1-2
  6
CONTINUOUS
 62
    3
 10
1127.3988
 20
1702.9835
 11
1126.9881
 21
1703.0008
  0
LINE
  8
1-2
  6
CONTINUOUS
 62
    3
 10
1126.9881
 20
1703.0008
 11
1126.5743
 21
1703.0114
  0
LINE
  8
1-2
  6
CONTINUOUS
 62
    3
 10
1126.5743
 20
1703.0114
 11
1126.1585
 21
1703.0144
  0
LINE
  8
1-2
  6
CONTINUOUS
 62
    3
 10
1126.1585
 20
1703.0144
 11
1125.7397
 21
1703.0104
  0
LINE
  8
1-2
  6
CONTINUOUS
 62
    3
 10
1125.7397
 20
1703.0104
 11
1125.3186
 21
1702.9993
  0
LINE
  8
1-2
  6
CONTINUOUS
 62
    3
 10
1125.3186
 20
1702.9993
 11
1124.8951
 21
1702.9805
  0
LINE
  8
1-2
  6
CONTINUOUS
 62
    3
 10
1124.8951
 20
1702.9805
 11
1124.4685
 21
1702.9548
  0
LINE
  8
1-2
  6
CONTINUOUS
 62
    3
 10
1124.4685
 20
1702.9548
 11
1124.0393
 21
1702.9216
  0
LINE
  8
1-2
  6
CONTINUOUS
 62
    3
 10
877.72204
 20
1702.8103
 11
877.87447
 21
1702.8211
  0
LINE
  8
1-2
  6
CONTINUOUS
 62
    3
 10
877.87447
 20
1702.8211
 11
878.02367
 21
1702.8291
  0
LINE
  8
1-2
  6
CONTINUOUS
 62
    3
 10
878.02367
 20
1702.8291
 11
878.16966
 21
1702.8347
  0
LINE
  8
1-2
  6
CONTINUOUS
 62
    3
 10
878.16966
 20
1702.8347
 11
878.31243
 21
1702.8375
  0
LINE
  8
1-2
  6
CONTINUOUS
 62
    3
 10
878.31243
 20
1702.8375
 11
878.45224
 21
1702.8375
  0
LINE
  8
1-2
  6
CONTINUOUS
 62
    3
 10
878.45224
 20
1702.8375
 11
878.58858
 21
1702.8347
  0
LINE
  8
1-2
  6
CONTINUOUS
 62
    3
 10
878.58858
 20
1702.8347
 11
878.72195
 21
1702.8291
  0
LINE
  8
1-2
  6
CONTINUOUS
 62
    3
 10
878.72195
 20
1702.8291
 11
878.8521
 21
1702.8211
  0
LINE
  8
1-2
  6
CONTINUOUS
 62
    3
 10
878.8521
 20
1702.8211
 11
878.97904
 21
1702.8103
  0
LINE
  8
1-2
  6
CONTINUOUS
 62
    3
 10
1222.2779
 20
1702.8103
 11
1222.1256
 21
1702.8211
  0
LINE
  8
1-2
  6
CONTINUOUS
 62
    3
 10
1222.1256
 20
1702.8211
 11
1221.9765
 21
1702.8291
  0
LINE
  8
1-2
  6
CONTINUOUS
 62
    3
 10
1221.9765
 20
1702.8291
 11
1221.8305
 21
1702.8347
  0
LINE
  8
1-2
  6
CONTINUOUS
 62
    3
 10
1221.8305
 20
1702.8347
 11
1221.6876
 21
1702.8375
  0
LINE
  8
1-2
  6
CONTINUOUS
 62
    3
 10
1221.6876
 20
1702.8375
 11
1221.5478
 21
1702.8375
  0
LINE
  8
1-2
  6
CONTINUOUS
 62
    3
 10
1221.5478
 20
1702.8375
 11
1221.4115
 21
1702.8347
  0
LINE
  8
1-2
  6
CONTINUOUS
 62
    3
 10
1221.4115
 20
1702.8347
 11
1221.2781
 21
1702.8291
  0
LINE
  8
1-2
  6
CONTINUOUS
 62
    3
 10
1221.2781
 20
1702.8291
 11
1221.148
 21
1702.8211
  0
LINE
  8
1-2
  6
CONTINUOUS
 62
    3
 10
1221.148
 20
1702.8211
 11
1221.0209
 21
1702.8103
  0
LINE
  8
1-8
  6
CONTINUOUS
 62
    7
 10
1483.3333
 20
1386.5438
 11
1483.3333
 21
1247.9057
  0
LINE
  8
1-8
  6
CONTINUOUS
 62
    7
 10
616.66671
 20
1247.9057
 11
616.66671
 21
1386.5438
  0
LINE
  8
1-d
  6
CONTINUOUS
 62
    7
 10
249.99984
 20
129.99994
 11
1850.0005
 21
129.99994
  0
LINE
  8
1-d
  6
CONTINUOUS
 62
    7
 10
249.99984
 20
29.999945
 11
249.99984
 21
209.99993
  0
LINE
  8
1-d
  6
CONTINUOUS
 62
    7
 10
249.99984
 20
29.999945
 11
1850.0005
 21
29.999945
  0
LINE
  8
1-d
  6
CONTINUOUS
 62
    7
 10
1850.0005
 20
209.99993
 11
1850.0005
 21
29.999945
  0
LINE
  8
1-d
  6
CONTINUOUS
 62
    7
 10
249.99984
 20
209.99993
 11
1850.0005
 21
209.99993
  0
LINE
  8
1-d
  6
CONTINUOUS
 62
    7
 10
1050
 20
209.99993
 11
1050
 21
29.999945
  0
LINE
  8
1-d
  6
CONTINUOUS
 62
    7
 10
650.00019
 20
29.999945
 11
650.00019
 21
129.99994
  0
LINE
  8
1-d
  6
CONTINUOUS
 62
    7
 10
1050
 20
129.99994
 11
1050
 21
209.99996
  0
LINE
  8
1-d
  6
CONTINUOUS
 62
    7
 10
849.99987
 20
29.999945
 11
849.99987
 21
129.99994
  0
LINE
  8
1-d
  6
CONTINUOUS
 62
    7
 10
285.00021
 20
29.999945
 11
285.00021
 21
129.99994
  0
LINE
  8
1-d
  6
CONTINUOUS
 62
    7
 10
685.00006
 20
29.999945
 11
685.00006
 21
129.99994
  0
LINE
  8
1-d
  6
CONTINUOUS
 62
    7
 10
884.99999
 20
29.999945
 11
884.99999
 21
129.99994
  0
LINE
  8
1-d
  6
CONTINUOUS
 62
    7
 10
1015.0001
 20
129.99994
 11
1015.0001
 21
209.99996
  0
LINE
  8
1-d
  6
CONTINUOUS
 62
    7
 10
1550.0004
 20
129.99994
 11
1550.0004
 21
209.99996
  0
LINE
  8
1-d
  6
CONTINUOUS
 62
    7
 10
1585.0003
 20
129.99994
 11
1585.0003
 21
209.99996
  0
LINE
  8
1-1
  6
CENTER2
 62
    7
 10
1050
 20
2454.3671
 11
1050
 21
1329.7297
  0
LINE
  8
1-2
  6
CONTINUOUS
 62
    3
 10
1410.3035
 20
1896.0332
 11
1356.413
 21
1916.2342
  0
LINE
  8
1-2
  6
CONTINUOUS
 62
    3
 10
1293.979
 20
1904.8777
 11
1254.2719
 21
1916.2342
  0
LINE
  8
1-2
  6
CONTINUOUS
 62
    3
 10
1324.9036
 20
1896.0332
 11
1310.6457
 21
1900.111
  0
ARC
  8
1-2
  6
CONTINUOUS
 62
    3
 10
787.50004
 20
1512.6998
 40
8.3329482
 50
90
 51
270
  0
ARC
  8
1-2
  6
CONTINUOUS
 62
    3
 10
787.4988
 20
1562.7002
 40
8.3329482
 50
90
 51
270
  0
ARC
  8
1-2
  6
CONTINUOUS
 62
    3
 10
1312.5
 20
1512.6998
 40
8.3329482
 50
270
 51
90
  0
ARC
  8
1-2
  6
CONTINUOUS
 62
    3
 10
1312.4988
 20
1562.7002
 40
8.3329482
 50
270
 51
90
  0
ARC
  8
1-2
  6
CONTINUOUS
 62
    3
 10
625.0011
 20
1887.7001
 40
8.3329482
 50
90
 51
270
  0
ARC
  8
1-2
  6
CONTINUOUS
 62
    3
 10
624.99999
 20
1787.6994
 40
8.3329482
 50
90
 51
270
  0
ARC
  8
1-2
  6
CONTINUOUS
 62
    3
 10
1475.0013
 20
1887.7001
 40
8.3329482
 50
270
 51
90
  0
ARC
  8
1-2
  6
CONTINUOUS
 62
    3
 10
1475.0001
 20
1787.6994
 40
8.3329482
 50
270
 51
90
  0
ARC
  8
1-2
  6
CONTINUOUS
 62
    3
 10
624.99986
 20
2237.7006
 40
8.3329482
 50
90
 51
270
  0
ARC
  8
1-2
  6
CONTINUOUS
 62
    3
 10
624.99986
 20
2137.6997
 40
8.3329482
 50
90
 51
270
  0
ARC
  8
1-2
  6
CONTINUOUS
 62
    3
 10
1475.0001
 20
2237.7006
 40
8.3329482
 50
270
 51
90
  0
ARC
  8
1-2
  6
CONTINUOUS
 62
    3
 10
1475.0001
 20
2137.6997
 40
8.3329482
 50
270
 51
90
  0
ARC
  8
1-2
  6
CONTINUOUS
 62
    3
 10
1024.3805
 20
2331.1351
 40
8.7075721
 50
191.71624
 51
348.28375
  0
ARC
  8
1-2
  6
CONTINUOUS
 62
    3
 10
1075.6196
 20
2331.1351
 40
8.7075721
 50
191.71624
 51
348.28375
  0
CIRCLE
  8
1-2
  6
CONTINUOUS
 62
    3
 10
797.68775
 20
2153.7004
 40
5.0000003
  0
CIRCLE
  8
1-2
  6
CONTINUOUS
 62
    3
 10
797.68775
 20
2213.4307
 40
5.0000003
  0
CIRCLE
  8
1-2
  6
CONTINUOUS
 62
    3
 10
797.68775
 20
1871.6999
 40
5.0000003
  0
CIRCLE
  8
1-2
  6
CONTINUOUS
 62
    3
 10
797.68775
 20
1811.9691
 40
5.0000003
  0
CIRCLE
  8
1-2
  6
CONTINUOUS
 62
    3
 10
1302.3122
 20
2153.7004
 40
5.0000003
  0
CIRCLE
  8
1-2
  6
CONTINUOUS
 62
    3
 10
1302.3122
 20
2213.4307
 40
5.0000003
  0
CIRCLE
  8
1-2
  6
CONTINUOUS
 62
    3
 10
1302.3122
 20
1871.6999
 40
5.0000003
  0
CIRCLE
  8
1-2
  6
CONTINUOUS
 62
    3
 10
1302.3122
 20
1811.9691
 40
5.0000003
  0
ARC
  8
1-2
  6
CONTINUOUS
 62
    3
 10
1024.3805
 20
1694.2652
 40
8.7075721
 50
11.716247
 51
168.28375
  0
ARC
  8
1-2
  6
CONTINUOUS
 62
    3
 10
1075.6196
 20
1694.2652
 40
8.7075721
 50
11.716247
 51
168.28375
  0
CIRCLE
  8
1-2
  6
CONTINUOUS
 62
    3
 10
861.61247
 20
1681.359
 40
5.0000003
  0
CIRCLE
  8
1-2
  6
CONTINUOUS
 62
    3
 10
861.61247
 20
1585.1207
 40
5.0000003
  0
CIRCLE
  8
1-2
  6
CONTINUOUS
 62
    3
 10
1238.3875
 20
1681.359
 40
5.0000003
  0
CIRCLE
  8
1-2
  6
CONTINUOUS
 62
    3
 10
1238.3875
 20
1585.1207
 40
5.0000003
  0
TEXT
  8
1-8
 10
340.00039
 20
1958.1163
 40
30
 41
1
 50
90
  1
570
  0
TEXT
  8
1-8
 10
340.00039
 20
1440.6168
 40
30
 41
1
 50
90
  1
60
  0
TEXT
  8
1-8
 10
1006.4597
 20
2613.045
 40
30
 41
1
 50
0
  1
510φ
  0
TEXT
  8
1-8
 10
989.61533
 20
1256.456
 40
30
 41
1
 50
0
  1
520*520
  0
TEXT
  8
1-d
 10
254.99986
 20
37.49994
 40
25
 41
1
 50
0
  1
番
  0
TEXT
  8
1-d
 10
655.00021
 20
97.499924
 40
25
 41
1
 50
0
  1
承
  0
TEXT
  8
1-d
 10
655.00021
 20
37.49994
 40
25
 41
1
 50
0
  1
認
  0
TEXT
  8
1-d
 10
1020.0002
 20
177.49997
 40
25
 41
1
 50
0
  1
尺
  0
TEXT
  8
1-d
 10
1020.0002
 20
137.49996
 40
25
 41
1
 50
0
  1
度
  0
TEXT
  8
1-d
 10
855.00014
 20
97.499924
 40
25
 41
1
 50
0
  1
製
  0
TEXT
  8
1-d
 10
855.00014
 20
37.49994
 40
25
 41
1
 50
0
  1
図
  0
TEXT
  8
1-d
 10
1555.0002
 20
177.49997
 40
25
 41
1
 50
0
  1
日
  0
TEXT
  8
1-d
 10
1555.0002
 20
137.49996
 40
25
 41
1
 50
0
  1
付
  0
TEXT
  8
1-d
 10
1111.4262
 20
103.48221
 40
20
 41
1
 50
0
  1
株式
  0
TEXT
  8
1-d
 10
1111.4262
 20
81.851798
 40
20
 41
1
 50
0
  1
会社
  0
TEXT
  8
1-d
 10
1174.2245
 20
83.247297
 40
40
 41
1
 50
0
  1
スズキベンチレーター
  0
TEXT
  8
1-d
 10
1237.9179
 20
34.024276
 40
20
 41
1
 50
0
  1
TEL(054)296-7000  FAX(054)296-7001
  0
TEXT
  8
1-d
 10
254.99984
 20
97.499924
 40
25
 41
1
 50
0
  1
図
  0
TEXT
  8
1-d
 10
1106.8491
 20
150.10071
 40
40
 41
1
 50
0
  1
１／６
  0
TEXT
  8
1-d
 10
224.18921
 20
2788.5135
 40
50
 41
1
 50
0
  1
ＡＳ－３００　自然回転  架台型立面
  0
TEXT
  8
1-d
 10
269.08933
 20
144.38893
 40
30
 41
1
 50
0
  1
ＡＳ－３００　自然回転  架台型立面
  0
TEXT
  8
1-d
 10
294.84095
 20
85.568623
 40
30
 41
1
 50
0
  1
30-A09a
  0
TEXT
  8
1-d
 10
1235.6794
 20
58.646024
 40
20
 41
1
 50
0
  1
〒421-2114　静岡市葵区安倍口新田１５２番地
  0
POINT
  8
1-8
 62
    2
 10
350.00036
 20
1504.3662
  0
POINT
  8
1-8
 62
    2
 10
350.00036
 20
2454.3671
  0
POINT
  8
1-8
 62
    2
 10
624.99999
 20
2599.807
  0
POINT
  8
1-8
 62
    2
 10
1475.0013
 20
2599.807
  0
POINT
  8
1-8
 62
    2
 10
616.66671
 20
1247.9057
  0
POINT
  8
1-8
 62
    2
 10
1483.3333
 20
1247.9057
  0
POINT
  8
1-8
 62
    2
 10
350.00036
 20
1404.3669
  0
POINT
  8
1-8
 62
    2
 10
350.00036
 20
1504.367
  0
ENDSEC
  0
EOF
