  0
SECTION
  2
HEADER
  9
$EXTMIN
 10
0
 20
0
  9
$EXTMAX
 10
2520
 20
1782
  0
ENDSEC
  0
SECTION
  2
TABLES
  0
TABLE
  2
LTYPE
 70
     9
  0
LTYPE
  2
CONTINUOUS
 70
    64
  3
実線
 72
    65
 73
     0
 40
0.0
  0
LTYPE
  2
DASHED1
 70
    64
  3
--  --  --  --  --  --  --  --  
 72
    65
 73
     2
 40
2.5
 49
1.25
 49
-1.25
  0
LTYPE
  2
DASHED2
 70
    64
  3
----    ----    ----    ----    
 72
    65
 73
     2
 40
5.0
 49
2.5
 49
-2.5
  0
LTYPE
  2
DASHED3
 70
    64
  3
------  ------  ------  ------  
 72
    65
 73
     2
 40
5.0
 49
3.75
 49
-1.25
  0
LTYPE
  2
CENTER1
 70
    64
  3
----- - ----- - ----- - ----- - 
 72
    65
 73
     4
 40
10.0
 49
6.25
 49
-1.25
 49
1.25
 49
-1.25
  0
LTYPE
  2
CENTER2
 70
    64
  3
----------  --  ----------  --  
 72
    65
 73
     4
 40
20.0
 49
12.5
 49
-2.5
 49
2.5
 49
-2.5
  0
LTYPE
  2
PHANTOM1
 70
    64
  3
--- - - --- - - --- - - --- - - 
 72
    65
 73
     6
 40
10.0
 49
3.25
 49
-1.25
 49
1.25
 49
-1.25
 49
1.25
 49
-1.25
  0
LTYPE
  2
PHANTOM2
 70
    64
  3
--------  -  -  --------  -  -  
 72
    65
 73
     6
 40
20.0
 49
10.0
 49
-2.5
 49
1.25
 49
-2.5
 49
1.25
 49
-2.5
  0
LTYPE
  2
DOT
 70
    64
  3
-   -   -   -   -   -   -   -   
 72
    65
 73
     2
 40
2.5
 49
0.625
 49
-1.875
  0
ENDTAB
  0
TABLE
  2
STYLE
 70
    1
  0
STYLE
  2
STANDARD
 70
    64
 40
0.0
 41
1.0
 42
0.0
 50
0.0
 71
     0
  3
TXT
  4
BIGFONT
  0
ENDTAB
  0
TABLE
  2
LAYER
 70
    8
  0
LAYER
  2
0-1
 70
   64
 62
    7
  6
CONTINUOUS
  0
LAYER
  2
0-2
 70
   64
 62
    7
  6
CONTINUOUS
  0
LAYER
  2
0-3
 70
   64
 62
    7
  6
CONTINUOUS
  0
LAYER
  2
0-4
 70
   64
 62
    7
  6
CONTINUOUS
  0
LAYER
  2
0-5
 70
   64
 62
    7
  6
CONTINUOUS
  0
LAYER
  2
0-8
 70
   64
 62
    7
  6
CONTINUOUS
  0
LAYER
  2
0-d
 70
   64
 62
    7
  6
CONTINUOUS
  0
LAYER
  2
ADD_LINE
 70
   64
 62
    7
  6
CONTINUOUS
  0
ENDTAB
  0
ENDSEC
  0
SECTION
  2
ENTITIES
  0
LINE
  8
0-d
  6
CONTINUOUS
 62
    7
 10
104.2379
 20
105.53526
 11
1064.2383
 21
105.53526
  0
LINE
  8
0-d
  6
CONTINUOUS
 62
    7
 10
104.2379
 20
45.535211
 11
104.2379
 21
153.53527
  0
LINE
  8
0-d
  6
CONTINUOUS
 62
    7
 10
104.2379
 20
45.535211
 11
1064.2383
 21
45.535211
  0
LINE
  8
0-d
  6
CONTINUOUS
 62
    7
 10
1064.2383
 20
153.53527
 11
1064.2383
 21
45.535211
  0
LINE
  8
0-d
  6
CONTINUOUS
 62
    7
 10
104.2379
 20
153.53527
 11
1064.2383
 21
153.53527
  0
LINE
  8
0-d
  6
CONTINUOUS
 62
    7
 10
584.23807
 20
153.53527
 11
584.23807
 21
45.535211
  0
LINE
  8
0-d
  6
CONTINUOUS
 62
    7
 10
344.23817
 20
45.535211
 11
344.23817
 21
105.53526
  0
LINE
  8
0-d
  6
CONTINUOUS
 62
    7
 10
584.23807
 20
105.53526
 11
584.23807
 21
153.53527
  0
LINE
  8
0-d
  6
CONTINUOUS
 62
    7
 10
464.23798
 20
45.535211
 11
464.23798
 21
105.53526
  0
LINE
  8
0-d
  6
CONTINUOUS
 62
    7
 10
125.23812
 20
45.535211
 11
125.23812
 21
105.53526
  0
LINE
  8
0-d
  6
CONTINUOUS
 62
    7
 10
365.2381
 20
45.535211
 11
365.2381
 21
105.53526
  0
LINE
  8
0-d
  6
CONTINUOUS
 62
    7
 10
485.23819
 20
45.535211
 11
485.23819
 21
105.53526
  0
LINE
  8
0-d
  6
CONTINUOUS
 62
    7
 10
563.23815
 20
105.53526
 11
563.23815
 21
153.53527
  0
LINE
  8
0-d
  6
CONTINUOUS
 62
    7
 10
884.23832
 20
105.53526
 11
884.23832
 21
153.53527
  0
LINE
  8
0-d
  6
CONTINUOUS
 62
    7
 10
905.23824
 20
105.53526
 11
905.23824
 21
153.53527
  0
LINE
  8
0-d
  6
CONTINUOUS
 62
    7
 10
104.23805
 20
1670.1559
 11
1064.238
 21
1670.1559
  0
LINE
  8
0-d
  6
CONTINUOUS
 62
    7
 10
104.23805
 20
1676.1561
 11
1064.238
 21
1676.1561
  0
LINE
  8
0-2
  6
CONTINUOUS
 62
    3
 10
322.93813
 20
1335.5838
 11
584.238
 21
1398.2946
  0
LINE
  8
0-2
  6
CONTINUOUS
 62
    3
 10
845.53757
 20
1335.5838
 11
584.238
 21
1398.2946
  0
LINE
  8
0-8
  6
CONTINUOUS
 62
    7
 10
184.23827
 20
1087.7953
 11
184.23827
 21
1398.2946
  0
LINE
  8
0-8
  6
CONTINUOUS
 62
    7
 10
301.73897
 20
1087.7953
 11
184.23827
 21
1087.7953
  0
LINE
  8
0-8
  6
CONTINUOUS
 62
    7
 10
334.23802
 20
1484.56
 11
834.23798
 21
1484.56
  0
LINE
  8
0-2
  6
CONTINUOUS
 62
    3
 10
334.23802
 20
1338.2949
 11
334.23802
 21
1262.7948
  0
LINE
  8
0-2
  6
CONTINUOUS
 62
    3
 10
334.23802
 20
1252.795
 11
334.23802
 21
1217.7947
  0
LINE
  8
0-2
  6
CONTINUOUS
 62
    3
 10
834.23798
 20
1338.2949
 11
834.23798
 21
1262.7948
  0
LINE
  8
0-8
  6
CONTINUOUS
 62
    7
 10
334.23802
 20
1366.2305
 11
334.23802
 21
1484.56
  0
LINE
  8
0-8
  6
CONTINUOUS
 62
    7
 10
384.29024
 20
1398.2946
 11
184.23827
 21
1398.2946
  0
LINE
  8
0-8
  6
CONTINUOUS
 62
    7
 10
834.23798
 20
1366.2305
 11
834.23798
 21
1484.56
  0
LINE
  8
0-2
  6
CONTINUOUS
 62
    3
 10
334.23802
 20
1207.7951
 11
584.238
 21
1207.7951
  0
LINE
  8
0-2
  6
CONTINUOUS
 62
    3
 10
334.23802
 20
1217.7948
 11
584.238
 21
1217.7948
  0
LINE
  8
0-2
  6
CONTINUOUS
 62
    3
 10
334.23802
 20
1252.795
 11
584.238
 21
1252.795
  0
LINE
  8
0-2
  6
CONTINUOUS
 62
    3
 10
334.23802
 20
1262.7948
 11
584.238
 21
1262.7948
  0
LINE
  8
0-2
  6
CONTINUOUS
 62
    3
 10
834.23739
 20
1252.795
 11
834.23739
 21
1217.7947
  0
LINE
  8
0-2
  6
CONTINUOUS
 62
    3
 10
334.23802
 20
1338.2949
 11
584.238
 21
1338.2949
  0
LINE
  8
0-8
  6
CONTINUOUS
 62
    7
 10
981.83484
 20
1087.7956
 11
981.83484
 21
1207.7951
  0
LINE
  8
0-8
  6
CONTINUOUS
 62
    7
 10
834.23739
 20
1087.7956
 11
981.83484
 21
1087.7956
  0
LINE
  8
0-8
  6
CONTINUOUS
 62
    7
 10
834.23739
 20
1207.7951
 11
981.83484
 21
1207.7951
  0
LINE
  8
0-8
  6
CONTINUOUS
 62
    7
 10
981.83484
 20
1207.7951
 11
981.83484
 21
1338.188
  0
LINE
  8
0-8
  6
CONTINUOUS
 62
    7
 10
845.53757
 20
1338.188
 11
981.83484
 21
1338.188
  0
LINE
  8
0-8
  6
CONTINUOUS
 62
    7
 10
981.83484
 20
1338.188
 11
981.83484
 21
1398.2946
  0
LINE
  8
0-8
  6
CONTINUOUS
 62
    7
 10
845.53757
 20
1398.2946
 11
981.83484
 21
1398.2946
  0
LINE
  8
0-5
  6
CONTINUOUS
 62
    7
 10
775.48859
 20
1352.3953
 11
584.238
 21
1352.3953
  0
LINE
  8
0-2
  6
CONTINUOUS
 62
    3
 10
775.48859
 20
1338.2949
 11
834.23798
 21
1338.2949
  0
LINE
  8
0-5
  6
CONTINUOUS
 62
    4
 10
775.48859
 20
1349.3952
 11
584.238
 21
1349.3952
  0
LINE
  8
0-5
  6
CONTINUOUS
 62
    4
 10
775.48859
 20
1346.3952
 11
584.238
 21
1346.3952
  0
LINE
  8
0-5
  6
CONTINUOUS
 62
    4
 10
775.48859
 20
1343.3952
 11
584.238
 21
1343.3952
  0
LINE
  8
0-5
  6
CONTINUOUS
 62
    4
 10
775.48859
 20
1340.3952
 11
584.238
 21
1340.3952
  0
LINE
  8
0-5
  6
CONTINUOUS
 62
    4
 10
775.48859
 20
1337.3952
 11
584.238
 21
1337.3952
  0
LINE
  8
0-5
  6
CONTINUOUS
 62
    4
 10
775.48859
 20
1334.3952
 11
584.238
 21
1334.3952
  0
LINE
  8
0-5
  6
CONTINUOUS
 62
    4
 10
775.48859
 20
1331.3952
 11
584.238
 21
1331.3952
  0
LINE
  8
0-5
  6
CONTINUOUS
 62
    4
 10
775.48859
 20
1328.3953
 11
584.238
 21
1328.3953
  0
LINE
  8
0-5
  6
CONTINUOUS
 62
    4
 10
775.48859
 20
1325.3953
 11
584.238
 21
1325.3953
  0
LINE
  8
0-5
  6
CONTINUOUS
 62
    4
 10
775.48859
 20
1322.3953
 11
584.238
 21
1322.3953
  0
LINE
  8
0-5
  6
CONTINUOUS
 62
    4
 10
775.48859
 20
1319.3953
 11
584.238
 21
1319.3953
  0
LINE
  8
0-5
  6
CONTINUOUS
 62
    4
 10
775.48859
 20
1316.3953
 11
584.238
 21
1316.3953
  0
LINE
  8
0-5
  6
CONTINUOUS
 62
    4
 10
775.48859
 20
1313.3953
 11
584.238
 21
1313.3953
  0
LINE
  8
0-5
  6
CONTINUOUS
 62
    4
 10
775.48859
 20
1310.3953
 11
584.238
 21
1310.3953
  0
LINE
  8
0-5
  6
CONTINUOUS
 62
    4
 10
775.48859
 20
1307.3953
 11
584.238
 21
1307.3953
  0
LINE
  8
0-5
  6
CONTINUOUS
 62
    4
 10
775.48859
 20
1304.3952
 11
584.238
 21
1304.3952
  0
LINE
  8
0-5
  6
CONTINUOUS
 62
    4
 10
775.48859
 20
1301.3952
 11
584.238
 21
1301.3952
  0
LINE
  8
0-5
  6
CONTINUOUS
 62
    4
 10
775.48859
 20
1298.3952
 11
584.238
 21
1298.3952
  0
LINE
  8
0-5
  6
CONTINUOUS
 62
    4
 10
775.48859
 20
1295.3952
 11
584.238
 21
1295.3952
  0
LINE
  8
0-5
  6
CONTINUOUS
 62
    4
 10
775.48859
 20
1292.3952
 11
584.238
 21
1292.3952
  0
LINE
  8
0-2
  6
CONTINUOUS
 62
    3
 10
426.738
 20
1132.7956
 11
741.73874
 21
1132.7956
  0
LINE
  8
0-2
  6
CONTINUOUS
 62
    3
 10
426.738
 20
1142.7953
 11
741.73874
 21
1142.7953
  0
LINE
  8
0-2
  6
CONTINUOUS
 62
    3
 10
426.738
 20
1097.7955
 11
741.73874
 21
1097.7955
  0
LINE
  8
0-2
  6
CONTINUOUS
 62
    3
 10
426.738
 20
1087.7957
 11
741.73874
 21
1087.7957
  0
LINE
  8
0-2
  6
CONTINUOUS
 62
    3
 10
426.738
 20
1132.7956
 11
426.738
 21
1097.7952
  0
LINE
  8
0-2
  6
CONTINUOUS
 62
    3
 10
741.738
 20
1132.7956
 11
741.738
 21
1097.7952
  0
LINE
  8
0-2
  6
CONTINUOUS
 62
    3
 10
426.738
 20
1207.7951
 11
426.738
 21
1142.7953
  0
LINE
  8
0-2
  6
CONTINUOUS
 62
    3
 10
741.738
 20
1132.7956
 11
741.738
 21
1097.7952
  0
LINE
  8
0-2
  6
CONTINUOUS
 62
    3
 10
741.73874
 20
1287.7956
 11
584.23859
 21
1287.7956
  0
LINE
  8
0-2
  6
CONTINUOUS
 62
    3
 10
741.73874
 20
1277.7956
 11
584.238
 21
1277.7956
  0
LINE
  8
0-2
  6
CONTINUOUS
 62
    3
 10
741.738
 20
1232.7963
 11
741.738
 21
1142.7953
  0
LINE
  8
0-2
  6
CONTINUOUS
 62
    3
 10
741.738
 20
1277.7956
 11
741.738
 21
1242.7958
  0
LINE
  8
0-8
  6
CONTINUOUS
 62
    7
 10
426.738
 20
988.41892
 11
741.738
 21
988.41892
  0
LINE
  8
0-8
  6
CONTINUOUS
 62
    7
 10
426.738
 20
1065.7292
 11
426.738
 21
988.41892
  0
LINE
  8
0-8
  6
CONTINUOUS
 62
    7
 10
741.738
 20
1065.7292
 11
741.738
 21
988.41892
  0
LINE
  8
0-8
  6
CONTINUOUS
 62
    7
 10
741.738
 20
1087.7956
 11
814.67118
 21
1087.7956
  0
LINE
  8
0-8
  6
CONTINUOUS
 62
    7
 10
741.738
 20
1287.7956
 11
814.67118
 21
1287.7956
  0
LINE
  8
0-8
  6
CONTINUOUS
 62
    7
 10
814.67118
 20
1087.7956
 11
814.67118
 21
1287.7956
  0
LINE
  8
0-4
  6
CONTINUOUS
 62
    3
 10
744.73801
 20
1269.3401
 11
741.738
 21
1269.3401
  0
LINE
  8
0-4
  6
CONTINUOUS
 62
    3
 10
744.73801
 20
1269.3401
 11
744.73801
 21
1251.132
  0
LINE
  8
0-4
  6
CONTINUOUS
 62
    3
 10
737.21727
 20
1260.3858
 11
749.28605
 21
1260.3858
  0
LINE
  8
0-4
  6
CONTINUOUS
 62
    3
 10
736.828
 20
1153.4562
 11
750.25938
 21
1153.4562
  0
LINE
  8
0-4
  6
CONTINUOUS
 62
    3
 10
827.28453
 20
1245.6951
 11
839.15154
 21
1245.6951
  0
LINE
  8
0-3
  6
CONTINUOUS
 62
    3
 10
595.32929
 20
1236.9719
 11
598.24809
 21
1238.7656
  0
LINE
  8
0-3
  6
CONTINUOUS
 62
    3
 10
598.24809
 20
1238.7656
 11
601.15308
 21
1240.5953
  0
LINE
  8
0-3
  6
CONTINUOUS
 62
    3
 10
601.15308
 20
1240.5953
 11
604.03076
 21
1242.4932
  0
LINE
  8
0-3
  6
CONTINUOUS
 62
    3
 10
604.03076
 20
1242.4932
 11
606.84875
 21
1244.4969
  0
LINE
  8
0-3
  6
CONTINUOUS
 62
    3
 10
606.84875
 20
1244.4969
 11
609.55584
 21
1246.6464
  0
LINE
  8
0-3
  6
CONTINUOUS
 62
    3
 10
609.55584
 20
1246.6464
 11
612.09517
 21
1248.9768
  0
LINE
  8
0-3
  6
CONTINUOUS
 62
    3
 10
612.09517
 20
1248.9768
 11
614.41136
 21
1251.5298
  0
LINE
  8
0-3
  6
CONTINUOUS
 62
    3
 10
614.41136
 20
1251.5298
 11
616.44873
 21
1254.3411
  0
LINE
  8
0-3
  6
CONTINUOUS
 62
    3
 10
616.44873
 20
1254.3411
 11
618.22584
 21
1257.3822
  0
LINE
  8
0-3
  6
CONTINUOUS
 62
    3
 10
618.22584
 20
1257.3822
 11
619.90482
 21
1260.4878
  0
LINE
  8
0-3
  6
CONTINUOUS
 62
    3
 10
619.90482
 20
1260.4878
 11
621.65654
 21
1263.4822
  0
LINE
  8
0-3
  6
CONTINUOUS
 62
    3
 10
621.65654
 20
1263.4822
 11
623.66051
 21
1266.1906
  0
LINE
  8
0-3
  6
CONTINUOUS
 62
    3
 10
623.66051
 20
1266.1906
 11
626.08611
 21
1268.4361
  0
LINE
  8
0-3
  6
CONTINUOUS
 62
    3
 10
626.08611
 20
1268.4361
 11
628.98724
 21
1270.1724
  0
LINE
  8
0-3
  6
CONTINUOUS
 62
    3
 10
628.98724
 20
1270.1724
 11
632.18679
 21
1271.5908
  0
LINE
  8
0-3
  6
CONTINUOUS
 62
    3
 10
632.18679
 20
1271.5908
 11
633.70142
 21
1272.1961
  0
LINE
  8
0-3
  6
CONTINUOUS
 62
    3
 10
632.18679
 20
1271.5908
 11
634.29379
 21
1271.9256
  0
LINE
  8
0-3
  6
CONTINUOUS
 62
    3
 10
634.29379
 20
1271.9256
 11
636.41979
 21
1272.2169
  0
LINE
  8
0-3
  6
CONTINUOUS
 62
    3
 10
636.41979
 20
1272.2169
 11
638.58068
 21
1272.4253
  0
LINE
  8
0-3
  6
CONTINUOUS
 62
    3
 10
638.58068
 20
1272.4253
 11
640.79473
 21
1272.5045
  0
LINE
  8
0-3
  6
CONTINUOUS
 62
    3
 10
640.79473
 20
1272.5045
 11
643.07632
 21
1272.4152
  0
LINE
  8
0-3
  6
CONTINUOUS
 62
    3
 10
643.07632
 20
1272.4152
 11
645.3591
 21
1272.0825
  0
LINE
  8
0-3
  6
CONTINUOUS
 62
    3
 10
645.3591
 20
1272.0825
 11
647.48881
 21
1271.4152
  0
LINE
  8
0-3
  6
CONTINUOUS
 62
    3
 10
647.48881
 20
1271.4152
 11
649.30393
 21
1270.3097
  0
LINE
  8
0-3
  6
CONTINUOUS
 62
    3
 10
649.30393
 20
1270.3097
 11
650.67411
 21
1268.694
  0
LINE
  8
0-3
  6
CONTINUOUS
 62
    3
 10
650.67411
 20
1268.694
 11
651.7423
 21
1266.7539
  0
LINE
  8
0-3
  6
CONTINUOUS
 62
    3
 10
594.1833
 20
1228.9541
 11
597.60376
 21
1229.4618
  0
LINE
  8
0-3
  6
CONTINUOUS
 62
    3
 10
597.60376
 20
1229.4618
 11
601.00314
 21
1230.0365
  0
LINE
  8
0-3
  6
CONTINUOUS
 62
    3
 10
601.00314
 20
1230.0365
 11
604.3651
 21
1230.7386
  0
LINE
  8
0-3
  6
CONTINUOUS
 62
    3
 10
604.3651
 20
1230.7386
 11
607.66664
 21
1231.6371
  0
LINE
  8
0-3
  6
CONTINUOUS
 62
    3
 10
607.66664
 20
1231.6371
 11
610.89083
 21
1232.7938
  0
LINE
  8
0-3
  6
CONTINUOUS
 62
    3
 10
610.89083
 20
1232.7938
 11
614.01941
 21
1234.2247
  0
LINE
  8
0-3
  6
CONTINUOUS
 62
    3
 10
614.01941
 20
1234.2247
 11
617.03887
 21
1235.9016
  0
LINE
  8
0-3
  6
CONTINUOUS
 62
    3
 10
617.03887
 20
1235.9016
 11
619.93302
 21
1237.8056
  0
LINE
  8
0-3
  6
CONTINUOUS
 62
    3
 10
619.93302
 20
1237.8056
 11
622.68792
 21
1239.9031
  0
LINE
  8
0-3
  6
CONTINUOUS
 62
    3
 10
622.68792
 20
1239.9031
 11
625.2902
 21
1242.1733
  0
LINE
  8
0-3
  6
CONTINUOUS
 62
    3
 10
625.2902
 20
1242.1733
 11
627.76019
 21
1244.5753
  0
LINE
  8
0-3
  6
CONTINUOUS
 62
    3
 10
627.76019
 20
1244.5753
 11
630.14749
 21
1247.0543
  0
LINE
  8
0-3
  6
CONTINUOUS
 62
    3
 10
630.14749
 20
1247.0543
 11
632.5045
 21
1249.556
  0
LINE
  8
0-3
  6
CONTINUOUS
 62
    3
 10
632.5045
 20
1249.556
 11
634.88126
 21
1252.0245
  0
LINE
  8
0-3
  6
CONTINUOUS
 62
    3
 10
634.88126
 20
1252.0245
 11
637.33195
 21
1254.4063
  0
LINE
  8
0-3
  6
CONTINUOUS
 62
    3
 10
637.33195
 20
1254.4063
 11
639.90335
 21
1256.6537
  0
LINE
  8
0-3
  6
CONTINUOUS
 62
    3
 10
639.90335
 20
1256.6537
 11
642.59233
 21
1258.7655
  0
LINE
  8
0-3
  6
CONTINUOUS
 62
    3
 10
642.59233
 20
1258.7655
 11
645.37706
 21
1260.7734
  0
LINE
  8
0-3
  6
CONTINUOUS
 62
    3
 10
645.37706
 20
1260.7734
 11
648.22802
 21
1262.7033
  0
LINE
  8
0-3
  6
CONTINUOUS
 62
    3
 10
648.22802
 20
1262.7033
 11
651.12425
 21
1264.585
  0
LINE
  8
0-3
  6
CONTINUOUS
 62
    3
 10
651.12425
 20
1264.585
 11
653.17454
 21
1265.8953
  0
LINE
  8
0-3
  6
CONTINUOUS
 62
    3
 10
653.17454
 20
1265.8953
 11
656.37364
 21
1267.2223
  0
LINE
  8
0-3
  6
CONTINUOUS
 62
    3
 10
656.37364
 20
1267.2223
 11
659.59114
 21
1268.4612
  0
LINE
  8
0-3
  6
CONTINUOUS
 62
    3
 10
659.59114
 20
1268.4612
 11
662.84666
 21
1269.5248
  0
LINE
  8
0-3
  6
CONTINUOUS
 62
    3
 10
662.84666
 20
1269.5248
 11
666.15934
 21
1270.3262
  0
LINE
  8
0-3
  6
CONTINUOUS
 62
    3
 10
666.15934
 20
1270.3262
 11
669.53689
 21
1270.8172
  0
LINE
  8
0-3
  6
CONTINUOUS
 62
    3
 10
669.53689
 20
1270.8172
 11
672.96299
 21
1271.0329
  0
LINE
  8
0-3
  6
CONTINUOUS
 62
    3
 10
672.96299
 20
1271.0329
 11
676.41775
 21
1271.0203
  0
LINE
  8
0-3
  6
CONTINUOUS
 62
    3
 10
676.41775
 20
1271.0203
 11
679.88274
 21
1270.8258
  0
LINE
  8
0-3
  6
CONTINUOUS
 62
    3
 10
679.88274
 20
1270.8258
 11
683.34166
 21
1270.4975
  0
LINE
  8
0-3
  6
CONTINUOUS
 62
    3
 10
683.34166
 20
1270.4975
 11
686.7737
 21
1270.0756
  0
LINE
  8
0-3
  6
CONTINUOUS
 62
    3
 10
686.7737
 20
1270.0756
 11
690.17589
 21
1269.5505
  0
LINE
  8
0-3
  6
CONTINUOUS
 62
    3
 10
690.17589
 20
1269.5505
 11
693.54899
 21
1268.9115
  0
LINE
  8
0-3
  6
CONTINUOUS
 62
    3
 10
693.54899
 20
1268.9115
 11
696.8881
 21
1268.1362
  0
LINE
  8
0-3
  6
CONTINUOUS
 62
    3
 10
696.8881
 20
1268.1362
 11
700.19513
 21
1267.2116
  0
LINE
  8
0-3
  6
CONTINUOUS
 62
    3
 10
700.19513
 20
1267.2116
 11
703.46891
 21
1266.1168
  0
LINE
  8
0-3
  6
CONTINUOUS
 62
    3
 10
703.46891
 20
1266.1168
 11
706.69607
 21
1264.8364
  0
LINE
  8
0-3
  6
CONTINUOUS
 62
    3
 10
706.69607
 20
1264.8364
 11
709.84662
 21
1263.3563
  0
LINE
  8
0-3
  6
CONTINUOUS
 62
    3
 10
709.84662
 20
1263.3563
 11
712.87454
 21
1261.667
  0
LINE
  8
0-3
  6
CONTINUOUS
 62
    3
 10
712.87454
 20
1261.667
 11
715.74049
 21
1259.7533
  0
LINE
  8
0-3
  6
CONTINUOUS
 62
    3
 10
715.74049
 20
1259.7533
 11
718.40304
 21
1257.6005
  0
LINE
  8
0-3
  6
CONTINUOUS
 62
    3
 10
718.40304
 20
1257.6005
 11
720.82508
 21
1255.2026
  0
LINE
  8
0-3
  6
CONTINUOUS
 62
    3
 10
720.82508
 20
1255.2026
 11
723.03793
 21
1252.595
  0
LINE
  8
0-3
  6
CONTINUOUS
 62
    3
 10
723.03793
 20
1252.595
 11
725.09668
 21
1249.8352
  0
LINE
  8
0-3
  6
CONTINUOUS
 62
    3
 10
725.09668
 20
1249.8352
 11
727.05967
 21
1246.9817
  0
LINE
  8
0-3
  6
CONTINUOUS
 62
    3
 10
727.05967
 20
1246.9817
 11
728.20032
 21
1245.2775
  0
LINE
  8
0-3
  6
CONTINUOUS
 62
    3
 10
727.05967
 20
1246.9817
 11
728.59449
 21
1243.8034
  0
LINE
  8
0-3
  6
CONTINUOUS
 62
    3
 10
728.59449
 20
1243.8034
 11
730.04765
 21
1240.6109
  0
LINE
  8
0-3
  6
CONTINUOUS
 62
    3
 10
730.04765
 20
1240.6109
 11
731.34048
 21
1237.396
  0
LINE
  8
0-3
  6
CONTINUOUS
 62
    3
 10
731.34048
 20
1237.396
 11
732.39056
 21
1234.1411
  0
LINE
  8
0-3
  6
CONTINUOUS
 62
    3
 10
732.39056
 20
1234.1411
 11
733.11804
 21
1230.8375
  0
LINE
  8
0-3
  6
CONTINUOUS
 62
    3
 10
733.11804
 20
1230.8375
 11
733.4451
 21
1227.4716
  0
LINE
  8
0-3
  6
CONTINUOUS
 62
    3
 10
733.4451
 20
1227.4716
 11
733.35127
 21
1224.0577
  0
LINE
  8
0-3
  6
CONTINUOUS
 62
    3
 10
733.35127
 20
1224.0577
 11
732.89371
 21
1220.6288
  0
LINE
  8
0-3
  6
CONTINUOUS
 62
    3
 10
732.89371
 20
1220.6288
 11
732.1312
 21
1217.2242
  0
LINE
  8
0-3
  6
CONTINUOUS
 62
    3
 10
732.1312
 20
1217.2242
 11
731.1163
 21
1213.8835
  0
LINE
  8
0-3
  6
CONTINUOUS
 62
    3
 10
731.1163
 20
1213.8835
 11
729.86579
 21
1210.6524
  0
LINE
  8
0-3
  6
CONTINUOUS
 62
    3
 10
729.86579
 20
1210.6524
 11
728.34596
 21
1207.5767
  0
LINE
  8
0-3
  6
CONTINUOUS
 62
    3
 10
728.34596
 20
1207.5767
 11
726.52
 21
1204.7039
  0
LINE
  8
0-3
  6
CONTINUOUS
 62
    3
 10
726.52
 20
1204.7039
 11
724.39237
 21
1202.0512
  0
LINE
  8
0-3
  6
CONTINUOUS
 62
    3
 10
724.39237
 20
1202.0512
 11
722.02734
 21
1199.5693
  0
LINE
  8
0-3
  6
CONTINUOUS
 62
    3
 10
722.02734
 20
1199.5693
 11
719.49915
 21
1197.2066
  0
LINE
  8
0-3
  6
CONTINUOUS
 62
    3
 10
719.49915
 20
1197.2066
 11
716.87891
 21
1194.9127
  0
LINE
  8
0-3
  6
CONTINUOUS
 62
    3
 10
716.87891
 20
1194.9127
 11
716.17252
 21
1194.3056
  0
LINE
  8
0-3
  6
CONTINUOUS
 62
    3
 10
716.87891
 20
1194.9127
 11
713.87162
 21
1193.2268
  0
LINE
  8
0-3
  6
CONTINUOUS
 62
    3
 10
713.87162
 20
1193.2268
 11
710.85276
 21
1191.5718
  0
LINE
  8
0-3
  6
CONTINUOUS
 62
    3
 10
710.85276
 20
1191.5718
 11
707.80895
 21
1189.9772
  0
LINE
  8
0-3
  6
CONTINUOUS
 62
    3
 10
707.80895
 20
1189.9772
 11
704.72328
 21
1188.473
  0
LINE
  8
0-3
  6
CONTINUOUS
 62
    3
 10
704.72328
 20
1188.473
 11
701.58831
 21
1187.089
  0
LINE
  8
0-3
  6
CONTINUOUS
 62
    3
 10
701.58831
 20
1187.089
 11
698.38639
 21
1185.8548
  0
LINE
  8
0-3
  6
CONTINUOUS
 62
    3
 10
698.38639
 20
1185.8548
 11
695.11707
 21
1184.7881
  0
LINE
  8
0-3
  6
CONTINUOUS
 62
    3
 10
695.11707
 20
1184.7881
 11
691.79356
 21
1183.8928
  0
LINE
  8
0-3
  6
CONTINUOUS
 62
    3
 10
691.79356
 20
1183.8928
 11
688.42847
 21
1183.1674
  0
LINE
  8
0-3
  6
CONTINUOUS
 62
    3
 10
688.42847
 20
1183.1674
 11
685.03251
 21
1182.6128
  0
LINE
  8
0-3
  6
CONTINUOUS
 62
    3
 10
685.03251
 20
1182.6128
 11
681.62185
 21
1182.2246
  0
LINE
  8
0-3
  6
CONTINUOUS
 62
    3
 10
681.62185
 20
1182.2246
 11
678.19976
 21
1181.9734
  0
LINE
  8
0-3
  6
CONTINUOUS
 62
    3
 10
678.19976
 20
1181.9734
 11
674.76905
 21
1181.8269
  0
LINE
  8
0-3
  6
CONTINUOUS
 62
    3
 10
674.76905
 20
1181.8269
 11
671.33048
 21
1181.7474
  0
LINE
  8
0-3
  6
CONTINUOUS
 62
    3
 10
671.33048
 20
1181.7474
 11
668.35007
 21
1181.7055
  0
LINE
  8
0-3
  6
CONTINUOUS
 62
    3
 10
629.93014
 20
1181.3896
 11
633.14587
 21
1180.0881
  0
LINE
  8
0-3
  6
CONTINUOUS
 62
    3
 10
633.14587
 20
1180.0881
 11
636.38075
 21
1178.8013
  0
LINE
  8
0-3
  6
CONTINUOUS
 62
    3
 10
636.38075
 20
1178.8013
 11
639.64561
 21
1177.6155
  0
LINE
  8
0-3
  6
CONTINUOUS
 62
    3
 10
639.64561
 20
1177.6155
 11
642.94181
 21
1176.6268
  0
LINE
  8
0-3
  6
CONTINUOUS
 62
    3
 10
642.94181
 20
1176.6268
 11
646.27839
 21
1175.9297
  0
LINE
  8
0-3
  6
CONTINUOUS
 62
    3
 10
646.27839
 20
1175.9297
 11
649.66247
 21
1175.6174
  0
LINE
  8
0-3
  6
CONTINUOUS
 62
    3
 10
649.66247
 20
1175.6174
 11
653.0859
 21
1175.6661
  0
LINE
  8
0-3
  6
CONTINUOUS
 62
    3
 10
653.0859
 20
1175.6661
 11
656.53442
 21
1175.9205
  0
LINE
  8
0-3
  6
CONTINUOUS
 62
    3
 10
656.53442
 20
1175.9205
 11
657.18232
 21
1175.9778
  0
LINE
  8
0-3
  6
CONTINUOUS
 62
    3
 10
656.53442
 20
1175.9205
 11
659.3542
 21
1176.5494
  0
LINE
  8
0-3
  6
CONTINUOUS
 62
    3
 10
659.3542
 20
1176.5494
 11
662.06054
 21
1177.4195
  0
LINE
  8
0-3
  6
CONTINUOUS
 62
    3
 10
662.06054
 20
1177.4195
 11
664.54375
 21
1178.7744
  0
LINE
  8
0-3
  6
CONTINUOUS
 62
    3
 10
664.54375
 20
1178.7744
 11
666.6607
 21
1180.7182
  0
LINE
  8
0-3
  6
CONTINUOUS
 62
    3
 10
666.6607
 20
1180.7182
 11
668.23041
 21
1183.155
  0
LINE
  8
0-3
  6
CONTINUOUS
 62
    3
 10
668.23041
 20
1183.155
 11
669.08526
 21
1185.9412
  0
LINE
  8
0-3
  6
CONTINUOUS
 62
    3
 10
669.08526
 20
1185.9412
 11
669.14836
 21
1188.8226
  0
LINE
  8
0-3
  6
CONTINUOUS
 62
    3
 10
669.14836
 20
1188.8226
 11
668.38585
 21
1191.5224
  0
LINE
  8
0-3
  6
CONTINUOUS
 62
    3
 10
668.38585
 20
1191.5224
 11
666.96089
 21
1193.9783
  0
LINE
  8
0-3
  6
CONTINUOUS
 62
    3
 10
666.96089
 20
1193.9783
 11
665.2007
 21
1196.3097
  0
LINE
  8
0-3
  6
CONTINUOUS
 62
    3
 10
599.1313
 20
1224.5093
 11
602.5969
 21
1223.9194
  0
LINE
  8
0-3
  6
CONTINUOUS
 62
    3
 10
602.5969
 20
1223.9194
 11
606.05106
 21
1223.429
  0
LINE
  8
0-3
  6
CONTINUOUS
 62
    3
 10
606.05106
 20
1223.429
 11
609.47998
 21
1223.1378
  0
LINE
  8
0-3
  6
CONTINUOUS
 62
    3
 10
609.47998
 20
1223.1378
 11
612.87178
 21
1223.143
  0
LINE
  8
0-3
  6
CONTINUOUS
 62
    3
 10
612.87178
 20
1223.143
 11
616.21386
 21
1223.542
  0
LINE
  8
0-3
  6
CONTINUOUS
 62
    3
 10
616.21386
 20
1223.542
 11
619.50693
 21
1224.3527
  0
LINE
  8
0-3
  6
CONTINUOUS
 62
    3
 10
619.50693
 20
1224.3527
 11
622.758
 21
1225.4653
  0
LINE
  8
0-3
  6
CONTINUOUS
 62
    3
 10
622.758
 20
1225.4653
 11
625.98263
 21
1226.7702
  0
LINE
  8
0-3
  6
CONTINUOUS
 62
    3
 10
625.98263
 20
1226.7702
 11
629.18722
 21
1228.1491
  0
LINE
  8
0-3
  6
CONTINUOUS
 62
    3
 10
629.18722
 20
1228.1491
 11
632.3884
 21
1229.5026
  0
LINE
  8
0-3
  6
CONTINUOUS
 62
    3
 10
632.3884
 20
1229.5026
 11
635.58602
 21
1230.8057
  0
LINE
  8
0-3
  6
CONTINUOUS
 62
    3
 10
635.58602
 20
1230.8057
 11
638.78363
 21
1232.0699
  0
LINE
  8
0-3
  6
CONTINUOUS
 62
    3
 10
638.78363
 20
1232.0699
 11
641.97769
 21
1233.3026
  0
LINE
  8
0-3
  6
CONTINUOUS
 62
    3
 10
641.97769
 20
1233.3026
 11
645.17174
 21
1234.5125
  0
LINE
  8
0-3
  6
CONTINUOUS
 62
    3
 10
645.17174
 20
1234.5125
 11
648.36638
 21
1235.7112
  0
LINE
  8
0-3
  6
CONTINUOUS
 62
    3
 10
648.36638
 20
1235.7112
 11
648.32184
 21
1232.7688
  0
LINE
  8
0-3
  6
CONTINUOUS
 62
    3
 10
648.32184
 20
1232.7688
 11
648.27953
 21
1229.83
  0
LINE
  8
0-3
  6
CONTINUOUS
 62
    3
 10
648.27953
 20
1229.83
 11
648.23722
 21
1226.8874
  0
LINE
  8
0-3
  6
CONTINUOUS
 62
    3
 10
648.23722
 20
1226.8874
 11
648.19298
 21
1223.9479
  0
LINE
  8
0-3
  6
CONTINUOUS
 62
    3
 10
648.19298
 20
1223.9479
 11
648.15081
 21
1221.0086
  0
LINE
  8
0-3
  6
CONTINUOUS
 62
    3
 10
648.15081
 20
1221.0086
 11
648.10835
 21
1218.066
  0
LINE
  8
0-3
  6
CONTINUOUS
 62
    3
 10
648.10835
 20
1218.066
 11
648.06396
 21
1215.127
  0
LINE
  8
0-3
  6
CONTINUOUS
 62
    3
 10
648.06396
 20
1215.127
 11
648.02195
 21
1212.1848
  0
LINE
  8
0-3
  6
CONTINUOUS
 62
    3
 10
648.02195
 20
1212.1848
 11
647.978
 21
1209.2447
  0
LINE
  8
0-3
  6
CONTINUOUS
 62
    3
 10
647.978
 20
1209.2447
 11
647.93524
 21
1206.3031
  0
LINE
  8
0-3
  6
CONTINUOUS
 62
    3
 10
665.2007
 20
1196.3097
 11
664.49758
 21
1196.9294
  0
LINE
  8
0-3
  6
CONTINUOUS
 62
    3
 10
664.49758
 20
1196.9294
 11
663.48699
 21
1197.679
  0
LINE
  8
0-3
  6
CONTINUOUS
 62
    3
 10
663.48699
 20
1197.679
 11
662.20916
 21
1198.5364
  0
LINE
  8
0-3
  6
CONTINUOUS
 62
    3
 10
662.20916
 20
1198.5364
 11
660.69839
 21
1199.4811
  0
LINE
  8
0-3
  6
CONTINUOUS
 62
    3
 10
660.69839
 20
1199.4811
 11
658.97606
 21
1200.4941
  0
LINE
  8
0-3
  6
CONTINUOUS
 62
    3
 10
658.97606
 20
1200.4941
 11
657.0729
 21
1201.5624
  0
LINE
  8
0-3
  6
CONTINUOUS
 62
    3
 10
657.0729
 20
1201.5624
 11
655.00717
 21
1202.6729
  0
LINE
  8
0-3
  6
CONTINUOUS
 62
    3
 10
655.00717
 20
1202.6729
 11
652.79447
 21
1203.8133
  0
LINE
  8
0-3
  6
CONTINUOUS
 62
    3
 10
652.79447
 20
1203.8133
 11
650.45483
 21
1204.9754
  0
LINE
  8
0-3
  6
CONTINUOUS
 62
    3
 10
650.45483
 20
1204.9754
 11
648.00087
 21
1206.1499
  0
LINE
  8
0-3
  6
CONTINUOUS
 62
    3
 10
648.00087
 20
1206.1499
 11
645.44165
 21
1207.3291
  0
LINE
  8
0-3
  6
CONTINUOUS
 62
    3
 10
645.44165
 20
1207.3291
 11
642.79335
 21
1208.51
  0
LINE
  8
0-3
  6
CONTINUOUS
 62
    3
 10
642.79335
 20
1208.51
 11
640.06324
 21
1209.6848
  0
LINE
  8
0-3
  6
CONTINUOUS
 62
    3
 10
640.06324
 20
1209.6848
 11
637.265
 21
1210.8502
  0
LINE
  8
0-3
  6
CONTINUOUS
 62
    3
 10
637.265
 20
1210.8502
 11
634.40618
 21
1212.0033
  0
LINE
  8
0-3
  6
CONTINUOUS
 62
    3
 10
634.40618
 20
1212.0033
 11
631.49821
 21
1213.1388
  0
LINE
  8
0-3
  6
CONTINUOUS
 62
    3
 10
631.49821
 20
1213.1388
 11
628.55135
 21
1214.2555
  0
LINE
  8
0-3
  6
CONTINUOUS
 62
    3
 10
628.55135
 20
1214.2555
 11
625.57777
 21
1215.3514
  0
LINE
  8
0-3
  6
CONTINUOUS
 62
    3
 10
625.57777
 20
1215.3514
 11
622.59008
 21
1216.4249
  0
LINE
  8
0-3
  6
CONTINUOUS
 62
    3
 10
622.59008
 20
1216.4249
 11
619.59913
 21
1217.4698
  0
LINE
  8
0-3
  6
CONTINUOUS
 62
    3
 10
619.59913
 20
1217.4698
 11
616.61723
 21
1218.4865
  0
LINE
  8
0-3
  6
CONTINUOUS
 62
    3
 10
616.61723
 20
1218.4865
 11
613.65894
 21
1219.4743
  0
LINE
  8
0-3
  6
CONTINUOUS
 62
    3
 10
613.65894
 20
1219.4743
 11
610.74044
 21
1220.427
  0
LINE
  8
0-3
  6
CONTINUOUS
 62
    3
 10
610.74044
 20
1220.427
 11
607.87271
 21
1221.3453
  0
LINE
  8
0-3
  6
CONTINUOUS
 62
    3
 10
607.87271
 20
1221.3453
 11
605.07446
 21
1222.2248
  0
LINE
  8
0-3
  6
CONTINUOUS
 62
    3
 10
605.07446
 20
1222.2248
 11
602.3601
 21
1223.0615
  0
LINE
  8
0-3
  6
CONTINUOUS
 62
    3
 10
602.3601
 20
1223.0615
 11
599.7452
 21
1223.8522
  0
LINE
  8
0-3
  6
CONTINUOUS
 62
    3
 10
599.7452
 20
1223.8522
 11
597.24344
 21
1224.5949
  0
LINE
  8
0-3
  6
CONTINUOUS
 62
    3
 10
597.24344
 20
1224.5949
 11
594.87083
 21
1225.283
  0
LINE
  8
0-3
  6
CONTINUOUS
 62
    3
 10
648.36638
 20
1235.7112
 11
648.40721
 21
1235.7252
  0
LINE
  8
0-3
  6
CONTINUOUS
 62
    3
 10
601.60738
 20
1178.5164
 11
601.60738
 21
1171.7643
  0
LINE
  8
0-3
  6
CONTINUOUS
 62
    3
 10
601.60738
 20
1171.7643
 11
622.12628
 21
1171.7643
  0
LINE
  8
0-3
  6
CONTINUOUS
 62
    3
 10
622.12628
 20
1178.5164
 11
622.12628
 21
1171.7643
  0
LINE
  8
0-3
  6
CONTINUOUS
 62
    3
 10
601.60738
 20
1178.5164
 11
622.12628
 21
1178.5164
  0
LINE
  8
0-3
  6
CONTINUOUS
 62
    3
 10
592.1002
 20
1243.6143
 11
592.1002
 21
1221.4602
  0
LINE
  8
0-3
  6
CONTINUOUS
 62
    3
 10
595.32929
 20
1236.9719
 11
594.99406
 21
1236.7821
  0
LINE
  8
0-3
  6
CONTINUOUS
 62
    3
 10
594.99406
 20
1236.7821
 11
594.65096
 21
1236.583
  0
LINE
  8
0-3
  6
CONTINUOUS
 62
    3
 10
594.65096
 20
1236.583
 11
594.3037
 21
1236.3746
  0
LINE
  8
0-3
  6
CONTINUOUS
 62
    3
 10
594.3037
 20
1236.3746
 11
593.94902
 21
1236.156
  0
LINE
  8
0-3
  6
CONTINUOUS
 62
    3
 10
593.94902
 20
1236.156
 11
593.58722
 21
1235.9304
  0
LINE
  8
0-3
  6
CONTINUOUS
 62
    3
 10
593.58722
 20
1235.9304
 11
593.21917
 21
1235.6931
  0
LINE
  8
0-3
  6
CONTINUOUS
 62
    3
 10
593.21917
 20
1235.6931
 11
592.84505
 21
1235.448
  0
LINE
  8
0-3
  6
CONTINUOUS
 62
    3
 10
592.84505
 20
1235.448
 11
592.46349
 21
1235.1921
  0
LINE
  8
0-3
  6
CONTINUOUS
 62
    3
 10
592.46349
 20
1235.1921
 11
592.07674
 21
1234.9285
  0
LINE
  8
0-3
  6
CONTINUOUS
 62
    3
 10
594.1833
 20
1228.9541
 11
593.93477
 21
1228.9064
  0
LINE
  8
0-3
  6
CONTINUOUS
 62
    3
 10
593.93477
 20
1228.9064
 11
593.68966
 21
1228.862
  0
LINE
  8
0-3
  6
CONTINUOUS
 62
    3
 10
593.68966
 20
1228.862
 11
593.44885
 21
1228.8182
  0
LINE
  8
0-3
  6
CONTINUOUS
 62
    3
 10
593.44885
 20
1228.8182
 11
593.21056
 21
1228.7752
  0
LINE
  8
0-3
  6
CONTINUOUS
 62
    3
 10
593.21056
 20
1228.7752
 11
592.97733
 21
1228.7343
  0
LINE
  8
0-3
  6
CONTINUOUS
 62
    3
 10
592.97733
 20
1228.7343
 11
592.74632
 21
1228.6962
  0
LINE
  8
0-3
  6
CONTINUOUS
 62
    3
 10
592.74632
 20
1228.6962
 11
592.51961
 21
1228.6603
  0
LINE
  8
0-3
  6
CONTINUOUS
 62
    3
 10
592.51961
 20
1228.6603
 11
592.29558
 21
1228.6254
  0
LINE
  8
0-3
  6
CONTINUOUS
 62
    3
 10
592.29558
 20
1228.6254
 11
592.07674
 21
1228.5914
  0
LINE
  8
0-3
  6
CONTINUOUS
 62
    3
 10
599.1313
 20
1224.5093
 11
598.18663
 21
1224.7098
  0
LINE
  8
0-3
  6
CONTINUOUS
 62
    3
 10
598.18663
 20
1224.7098
 11
597.28026
 21
1224.9032
  0
LINE
  8
0-3
  6
CONTINUOUS
 62
    3
 10
597.28026
 20
1224.9032
 11
596.41545
 21
1225.0906
  0
LINE
  8
0-3
  6
CONTINUOUS
 62
    3
 10
596.41545
 20
1225.0906
 11
595.59118
 21
1225.2723
  0
LINE
  8
0-3
  6
CONTINUOUS
 62
    3
 10
595.59118
 20
1225.2723
 11
594.8067
 21
1225.447
  0
LINE
  8
0-3
  6
CONTINUOUS
 62
    3
 10
594.8067
 20
1225.447
 11
594.06379
 21
1225.6167
  0
LINE
  8
0-3
  6
CONTINUOUS
 62
    3
 10
594.06379
 20
1225.6167
 11
593.36066
 21
1225.7793
  0
LINE
  8
0-3
  6
CONTINUOUS
 62
    3
 10
593.36066
 20
1225.7793
 11
592.69851
 21
1225.9364
  0
LINE
  8
0-3
  6
CONTINUOUS
 62
    3
 10
592.69851
 20
1225.9364
 11
592.07674
 21
1226.086
  0
LINE
  8
0-3
  6
CONTINUOUS
 62
    3
 10
594.87083
 20
1225.283
 11
594.50116
 21
1225.3835
  0
LINE
  8
0-3
  6
CONTINUOUS
 62
    3
 10
594.50116
 20
1225.3835
 11
594.14663
 21
1225.4805
  0
LINE
  8
0-3
  6
CONTINUOUS
 62
    3
 10
594.14663
 20
1225.4805
 11
593.80724
 21
1225.5759
  0
LINE
  8
0-3
  6
CONTINUOUS
 62
    3
 10
593.80724
 20
1225.5759
 11
593.48389
 21
1225.6678
  0
LINE
  8
0-3
  6
CONTINUOUS
 62
    3
 10
593.48389
 20
1225.6678
 11
593.17701
 21
1225.7563
  0
LINE
  8
0-3
  6
CONTINUOUS
 62
    3
 10
593.17701
 20
1225.7563
 11
592.88394
 21
1225.8405
  0
LINE
  8
0-3
  6
CONTINUOUS
 62
    3
 10
592.88394
 20
1225.8405
 11
592.60676
 21
1225.923
  0
LINE
  8
0-3
  6
CONTINUOUS
 62
    3
 10
592.60676
 20
1225.923
 11
592.34591
 21
1226.0032
  0
LINE
  8
0-3
  6
CONTINUOUS
 62
    3
 10
592.34591
 20
1226.0032
 11
592.1002
 21
1226.0813
  0
LINE
  8
0-3
  6
CONTINUOUS
 62
    3
 10
589.07377
 20
1246.6423
 11
584.23859
 21
1246.6423
  0
LINE
  8
0-3
  6
CONTINUOUS
 62
    3
 10
589.07377
 20
1200.1262
 11
584.23859
 21
1200.1262
  0
LINE
  8
0-3
  6
CONTINUOUS
 62
    3
 10
586.76426
 20
1215.8978
 11
588.51792
 21
1213.9182
  0
LINE
  8
0-3
  6
CONTINUOUS
 62
    3
 10
588.51792
 20
1213.9182
 11
590.44542
 21
1211.8617
  0
LINE
  8
0-3
  6
CONTINUOUS
 62
    3
 10
590.44542
 20
1211.8617
 11
592.51842
 21
1209.7523
  0
LINE
  8
0-3
  6
CONTINUOUS
 62
    3
 10
592.51842
 20
1209.7523
 11
594.71064
 21
1207.6117
  0
LINE
  8
0-3
  6
CONTINUOUS
 62
    3
 10
594.71064
 20
1207.6117
 11
596.99684
 21
1205.4607
  0
LINE
  8
0-3
  6
CONTINUOUS
 62
    3
 10
596.99684
 20
1205.4607
 11
599.354
 21
1203.3179
  0
LINE
  8
0-3
  6
CONTINUOUS
 62
    3
 10
599.354
 20
1203.3179
 11
601.75986
 21
1201.2003
  0
LINE
  8
0-3
  6
CONTINUOUS
 62
    3
 10
601.75986
 20
1201.2003
 11
604.19466
 21
1199.1234
  0
LINE
  8
0-3
  6
CONTINUOUS
 62
    3
 10
604.19466
 20
1199.1234
 11
606.63986
 21
1197.1014
  0
LINE
  8
0-3
  6
CONTINUOUS
 62
    3
 10
606.63986
 20
1197.1014
 11
609.07838
 21
1195.1468
  0
LINE
  8
0-3
  6
CONTINUOUS
 62
    3
 10
609.07838
 20
1195.1468
 11
611.49493
 21
1193.2702
  0
LINE
  8
0-3
  6
CONTINUOUS
 62
    3
 10
611.49493
 20
1193.2702
 11
613.87599
 21
1191.4807
  0
LINE
  8
0-3
  6
CONTINUOUS
 62
    3
 10
613.87599
 20
1191.4807
 11
616.20925
 21
1189.7865
  0
LINE
  8
0-3
  6
CONTINUOUS
 62
    3
 10
616.20925
 20
1189.7865
 11
618.48431
 21
1188.1926
  0
LINE
  8
0-3
  6
CONTINUOUS
 62
    3
 10
618.48431
 20
1188.1926
 11
620.69257
 21
1186.7039
  0
LINE
  8
0-3
  6
CONTINUOUS
 62
    3
 10
620.69257
 20
1186.7039
 11
622.82614
 21
1185.3232
  0
LINE
  8
0-3
  6
CONTINUOUS
 62
    3
 10
622.82614
 20
1185.3232
 11
624.87999
 21
1184.0513
  0
LINE
  8
0-3
  6
CONTINUOUS
 62
    3
 10
624.87999
 20
1184.0513
 11
626.84981
 21
1182.8885
  0
LINE
  8
0-3
  6
CONTINUOUS
 62
    3
 10
626.84981
 20
1182.8885
 11
628.73292
 21
1181.8318
  0
LINE
  8
0-3
  6
CONTINUOUS
 62
    3
 10
628.73292
 20
1181.8318
 11
628.87144
 21
1181.7711
  0
LINE
  8
0-3
  6
CONTINUOUS
 62
    3
 10
628.87144
 20
1181.7711
 11
629.00877
 21
1181.7135
  0
LINE
  8
0-3
  6
CONTINUOUS
 62
    3
 10
629.00877
 20
1181.7135
 11
629.14476
 21
1181.6585
  0
LINE
  8
0-3
  6
CONTINUOUS
 62
    3
 10
629.14476
 20
1181.6585
 11
629.27912
 21
1181.6066
  0
LINE
  8
0-3
  6
CONTINUOUS
 62
    3
 10
629.27912
 20
1181.6066
 11
629.412
 21
1181.5576
  0
LINE
  8
0-3
  6
CONTINUOUS
 62
    3
 10
629.412
 20
1181.5576
 11
629.54369
 21
1181.5112
  0
LINE
  8
0-3
  6
CONTINUOUS
 62
    3
 10
629.54369
 20
1181.5112
 11
629.67404
 21
1181.4677
  0
LINE
  8
0-3
  6
CONTINUOUS
 62
    3
 10
629.67404
 20
1181.4677
 11
629.80276
 21
1181.4276
  0
LINE
  8
0-3
  6
CONTINUOUS
 62
    3
 10
629.80276
 20
1181.4276
 11
629.93014
 21
1181.3896
  0
LINE
  8
0-3
  6
CONTINUOUS
 62
    3
 10
586.76426
 20
1215.8978
 11
587.80098
 21
1216.4127
  0
LINE
  8
0-3
  6
CONTINUOUS
 62
    3
 10
587.80098
 20
1216.4127
 11
588.72666
 21
1216.9533
  0
LINE
  8
0-3
  6
CONTINUOUS
 62
    3
 10
588.72666
 20
1216.9533
 11
589.54143
 21
1217.5198
  0
LINE
  8
0-3
  6
CONTINUOUS
 62
    3
 10
589.54143
 20
1217.5198
 11
590.24529
 21
1218.112
  0
LINE
  8
0-3
  6
CONTINUOUS
 62
    3
 10
590.24529
 20
1218.112
 11
590.83826
 21
1218.7304
  0
LINE
  8
0-3
  6
CONTINUOUS
 62
    3
 10
590.83826
 20
1218.7304
 11
591.32017
 21
1219.3741
  0
LINE
  8
0-3
  6
CONTINUOUS
 62
    3
 10
591.32017
 20
1219.3741
 11
591.69118
 21
1220.0439
  0
LINE
  8
0-3
  6
CONTINUOUS
 62
    3
 10
591.69118
 20
1220.0439
 11
591.95114
 21
1220.739
  0
LINE
  8
0-3
  6
CONTINUOUS
 62
    3
 10
591.95114
 20
1220.739
 11
592.1002
 21
1221.4602
  0
LINE
  8
0-3
  6
CONTINUOUS
 62
    3
 10
592.10109
 20
1203.1542
 11
592.10109
 21
1210.1769
  0
LINE
  8
0-3
  6
CONTINUOUS
 62
    3
 10
631.41953
 20
1229.2854
 11
625.45781
 21
1242.4254
  0
LINE
  8
0-3
  6
CONTINUOUS
 62
    3
 10
608.46686
 20
1157.9128
 11
584.23859
 21
1157.9128
  0
LINE
  8
0-3
  6
CONTINUOUS
 62
    3
 10
612.51681
 20
1161.9627
 11
612.51681
 21
1171.7643
  0
LINE
  8
0-3
  6
CONTINUOUS
 62
    3
 10
606.44181
 20
1154.2711
 11
584.23859
 21
1154.2711
  0
LINE
  8
0-3
  6
CONTINUOUS
 62
    3
 10
608.46686
 20
1156.2964
 11
608.46686
 21
1157.9128
  0
LINE
  8
0-3
  6
CONTINUOUS
 62
    3
 10
612.51681
 20
1191.5515
 11
612.51681
 21
1178.5164
  0
LINE
  8
0-3
  6
CONTINUOUS
 62
    3
 10
607.51684
 20
1196.5514
 11
584.23859
 21
1196.5514
  0
LINE
  8
0-2
  6
CONTINUOUS
 62
    3
 10
744.73801
 20
1252.795
 11
834.23798
 21
1252.795
  0
LINE
  8
0-2
  6
CONTINUOUS
 62
    3
 10
744.73801
 20
1262.7948
 11
834.23798
 21
1262.7948
  0
LINE
  8
0-2
  6
CONTINUOUS
 62
    3
 10
741.738
 20
1207.7951
 11
834.23798
 21
1207.7951
  0
LINE
  8
0-2
  6
CONTINUOUS
 62
    3
 10
795.38335
 20
1217.7948
 11
834.23798
 21
1217.7948
  0
LINE
  8
0-2
  6
CONTINUOUS
 62
    3
 10
741.738
 20
1217.7948
 11
789.927
 21
1217.7948
  0
LINE
  8
0-2
  6
CONTINUOUS
 62
    3
 10
741.738
 20
1242.7958
 11
729.05309
 21
1242.7958
  0
LINE
  8
0-2
  6
CONTINUOUS
 62
    3
 10
741.738
 20
1232.7963
 11
732.68675
 21
1232.7963
  0
LINE
  8
0-2
  6
CONTINUOUS
 62
    3
 10
741.73874
 20
1287.7956
 11
584.23859
 21
1287.7956
  0
LINE
  8
0-5
  6
CONTINUOUS
 62
    4
 10
775.48859
 20
1289.3952
 11
584.238
 21
1289.3952
  0
LINE
  8
0-5
  6
CONTINUOUS
 62
    4
 10
586.48901
 20
1287.7956
 11
586.48901
 21
1352.3953
  0
LINE
  8
0-5
  6
CONTINUOUS
 62
    4
 10
589.48902
 20
1287.7956
 11
589.48902
 21
1352.3953
  0
LINE
  8
0-5
  6
CONTINUOUS
 62
    4
 10
592.48903
 20
1287.7956
 11
592.48903
 21
1352.3953
  0
LINE
  8
0-5
  6
CONTINUOUS
 62
    4
 10
595.48904
 20
1287.7956
 11
595.48904
 21
1352.3953
  0
LINE
  8
0-5
  6
CONTINUOUS
 62
    4
 10
598.48905
 20
1287.7956
 11
598.48905
 21
1352.3953
  0
LINE
  8
0-5
  6
CONTINUOUS
 62
    4
 10
601.48891
 20
1287.7956
 11
601.48891
 21
1352.3953
  0
LINE
  8
0-5
  6
CONTINUOUS
 62
    4
 10
604.48892
 20
1287.7956
 11
604.48892
 21
1352.3953
  0
LINE
  8
0-5
  6
CONTINUOUS
 62
    4
 10
607.48893
 20
1287.7956
 11
607.48893
 21
1352.3953
  0
LINE
  8
0-5
  6
CONTINUOUS
 62
    4
 10
610.48894
 20
1287.7956
 11
610.48894
 21
1352.3953
  0
LINE
  8
0-5
  6
CONTINUOUS
 62
    4
 10
613.48895
 20
1287.7956
 11
613.48895
 21
1352.3953
  0
LINE
  8
0-5
  6
CONTINUOUS
 62
    4
 10
616.48896
 20
1287.7956
 11
616.48896
 21
1352.3953
  0
LINE
  8
0-5
  6
CONTINUOUS
 62
    4
 10
619.48897
 20
1287.7956
 11
619.48897
 21
1352.3953
  0
LINE
  8
0-5
  6
CONTINUOUS
 62
    4
 10
622.48898
 20
1287.7956
 11
622.48898
 21
1352.3953
  0
LINE
  8
0-5
  6
CONTINUOUS
 62
    4
 10
625.48899
 20
1287.7956
 11
625.48899
 21
1352.3953
  0
LINE
  8
0-5
  6
CONTINUOUS
 62
    4
 10
628.489
 20
1287.7956
 11
628.489
 21
1352.3953
  0
LINE
  8
0-5
  6
CONTINUOUS
 62
    4
 10
631.48886
 20
1287.7956
 11
631.48886
 21
1352.3953
  0
LINE
  8
0-5
  6
CONTINUOUS
 62
    4
 10
634.48887
 20
1287.7956
 11
634.48887
 21
1352.3953
  0
LINE
  8
0-5
  6
CONTINUOUS
 62
    4
 10
637.48888
 20
1287.7956
 11
637.48888
 21
1352.3953
  0
LINE
  8
0-5
  6
CONTINUOUS
 62
    4
 10
640.48889
 20
1287.7956
 11
640.48889
 21
1352.3953
  0
LINE
  8
0-5
  6
CONTINUOUS
 62
    4
 10
643.4889
 20
1287.7956
 11
643.4889
 21
1352.3953
  0
LINE
  8
0-5
  6
CONTINUOUS
 62
    4
 10
646.48891
 20
1287.7956
 11
646.48891
 21
1352.3953
  0
LINE
  8
0-5
  6
CONTINUOUS
 62
    4
 10
649.48892
 20
1287.7956
 11
649.48892
 21
1352.3953
  0
LINE
  8
0-5
  6
CONTINUOUS
 62
    4
 10
652.48893
 20
1287.7956
 11
652.48893
 21
1352.3953
  0
LINE
  8
0-5
  6
CONTINUOUS
 62
    4
 10
655.48894
 20
1287.7956
 11
655.48894
 21
1352.3953
  0
LINE
  8
0-5
  6
CONTINUOUS
 62
    4
 10
658.48895
 20
1287.7956
 11
658.48895
 21
1352.3953
  0
LINE
  8
0-5
  6
CONTINUOUS
 62
    4
 10
661.48881
 20
1287.7956
 11
661.48881
 21
1352.3953
  0
LINE
  8
0-5
  6
CONTINUOUS
 62
    4
 10
664.48882
 20
1287.7956
 11
664.48882
 21
1352.3953
  0
LINE
  8
0-5
  6
CONTINUOUS
 62
    4
 10
667.48883
 20
1287.7956
 11
667.48883
 21
1352.3953
  0
LINE
  8
0-5
  6
CONTINUOUS
 62
    4
 10
670.48899
 20
1287.7956
 11
670.48899
 21
1352.3953
  0
LINE
  8
0-5
  6
CONTINUOUS
 62
    4
 10
673.48885
 20
1287.7956
 11
673.48885
 21
1352.3953
  0
LINE
  8
0-5
  6
CONTINUOUS
 62
    4
 10
676.48886
 20
1287.7956
 11
676.48886
 21
1352.3953
  0
LINE
  8
0-5
  6
CONTINUOUS
 62
    4
 10
679.48887
 20
1287.7956
 11
679.48887
 21
1352.3953
  0
LINE
  8
0-5
  6
CONTINUOUS
 62
    4
 10
682.48888
 20
1287.7956
 11
682.48888
 21
1352.3953
  0
LINE
  8
0-5
  6
CONTINUOUS
 62
    4
 10
685.48889
 20
1287.7956
 11
685.48889
 21
1352.3953
  0
LINE
  8
0-5
  6
CONTINUOUS
 62
    4
 10
688.4889
 20
1287.7956
 11
688.4889
 21
1352.3953
  0
LINE
  8
0-5
  6
CONTINUOUS
 62
    4
 10
691.48876
 20
1287.7956
 11
691.48876
 21
1352.3953
  0
LINE
  8
0-5
  6
CONTINUOUS
 62
    4
 10
694.48877
 20
1287.7956
 11
694.48877
 21
1352.3953
  0
LINE
  8
0-5
  6
CONTINUOUS
 62
    4
 10
697.48893
 20
1287.7956
 11
697.48893
 21
1352.3953
  0
LINE
  8
0-5
  6
CONTINUOUS
 62
    4
 10
700.48879
 20
1287.7956
 11
700.48879
 21
1352.3953
  0
LINE
  8
0-5
  6
CONTINUOUS
 62
    4
 10
703.4888
 20
1287.7956
 11
703.4888
 21
1352.3953
  0
LINE
  8
0-5
  6
CONTINUOUS
 62
    4
 10
706.48881
 20
1287.7956
 11
706.48881
 21
1352.3953
  0
LINE
  8
0-5
  6
CONTINUOUS
 62
    4
 10
709.48882
 20
1287.7956
 11
709.48882
 21
1352.3953
  0
LINE
  8
0-5
  6
CONTINUOUS
 62
    4
 10
712.48883
 20
1287.7956
 11
712.48883
 21
1352.3953
  0
LINE
  8
0-5
  6
CONTINUOUS
 62
    4
 10
715.48884
 20
1287.7956
 11
715.48884
 21
1352.3953
  0
LINE
  8
0-5
  6
CONTINUOUS
 62
    4
 10
718.48885
 20
1287.7956
 11
718.48885
 21
1352.3953
  0
LINE
  8
0-5
  6
CONTINUOUS
 62
    4
 10
721.48871
 20
1287.7956
 11
721.48871
 21
1352.3953
  0
LINE
  8
0-5
  6
CONTINUOUS
 62
    4
 10
724.48887
 20
1287.7956
 11
724.48887
 21
1352.3953
  0
LINE
  8
0-5
  6
CONTINUOUS
 62
    4
 10
727.48873
 20
1287.7956
 11
727.48873
 21
1352.3953
  0
LINE
  8
0-5
  6
CONTINUOUS
 62
    4
 10
730.48874
 20
1287.7956
 11
730.48874
 21
1352.3953
  0
LINE
  8
0-5
  6
CONTINUOUS
 62
    4
 10
733.48875
 20
1287.7956
 11
733.48875
 21
1352.3953
  0
LINE
  8
0-5
  6
CONTINUOUS
 62
    4
 10
736.48861
 20
1287.7956
 11
736.48861
 21
1352.3953
  0
LINE
  8
0-5
  6
CONTINUOUS
 62
    4
 10
739.48877
 20
1287.7956
 11
739.48877
 21
1352.3953
  0
LINE
  8
0-5
  6
CONTINUOUS
 62
    4
 10
742.48863
 20
1287.7956
 11
742.48863
 21
1352.3953
  0
LINE
  8
0-5
  6
CONTINUOUS
 62
    4
 10
745.48879
 20
1287.7956
 11
745.48879
 21
1352.3953
  0
LINE
  8
0-5
  6
CONTINUOUS
 62
    4
 10
748.48865
 20
1287.7956
 11
748.48865
 21
1352.3953
  0
LINE
  8
0-5
  6
CONTINUOUS
 62
    4
 10
751.48866
 20
1287.7956
 11
751.48866
 21
1352.3953
  0
LINE
  8
0-5
  6
CONTINUOUS
 62
    4
 10
754.48867
 20
1287.7956
 11
754.48867
 21
1352.3953
  0
LINE
  8
0-5
  6
CONTINUOUS
 62
    4
 10
757.48868
 20
1287.7956
 11
757.48868
 21
1352.3953
  0
LINE
  8
0-5
  6
CONTINUOUS
 62
    4
 10
760.48869
 20
1287.7956
 11
760.48869
 21
1352.3953
  0
LINE
  8
0-5
  6
CONTINUOUS
 62
    4
 10
763.4887
 20
1287.7956
 11
763.4887
 21
1352.3953
  0
LINE
  8
0-5
  6
CONTINUOUS
 62
    4
 10
766.48871
 20
1287.7956
 11
766.48871
 21
1352.3953
  0
LINE
  8
0-5
  6
CONTINUOUS
 62
    4
 10
769.48857
 20
1287.7956
 11
769.48857
 21
1352.3953
  0
LINE
  8
0-5
  6
CONTINUOUS
 62
    4
 10
772.48873
 20
1287.7956
 11
772.48873
 21
1352.3953
  0
LINE
  8
0-5
  6
CONTINUOUS
 62
    7
 10
775.48859
 20
1287.7956
 11
775.48859
 21
1352.3953
  0
LINE
  8
0-1
  6
CENTER2
 62
    7
 10
584.238
 20
1065.4053
 11
584.238
 21
1398.2946
  0
LINE
  8
0-2
  6
CONTINUOUS
 62
    3
 10
694.81242
 20
1371.7573
 11
584.238
 21
1371.7573
  0
LINE
  8
0-2
  6
CONTINUOUS
 62
    3
 10
653.64131
 20
1352.3953
 11
694.81242
 21
1371.7573
  0
LINE
  8
0-2
  6
CONTINUOUS
 62
    3
 10
831.23723
 20
1252.0242
 11
831.23723
 21
1210.7949
  0
LINE
  8
0-2
  6
CONTINUOUS
 62
    3
 10
831.23723
 20
1210.7949
 11
744.73801
 21
1210.7949
  0
LINE
  8
0-2
  6
CONTINUOUS
 62
    3
 10
744.73801
 20
1210.7949
 11
744.73801
 21
1142.7953
  0
LINE
  8
0-4
  6
CONTINUOUS
 62
    3
 10
741.738
 20
1249.5153
 11
800.56117
 21
1210.7949
  0
LINE
  8
0-4
  6
CONTINUOUS
 62
    3
 10
744.73801
 20
1251.132
 11
801.4599
 21
1213.7949
  0
LINE
  8
0-2
  6
CONTINUOUS
 62
    3
 10
831.23723
 20
1213.7949
 11
801.4599
 21
1213.7949
  0
LINE
  8
0-4
  6
CONTINUOUS
 62
    3
 10
819.39026
 20
1205.7017
 11
819.39026
 21
1215.7106
  0
LINE
  8
0-2
  6
CONTINUOUS
 62
    3
 10
834.23739
 20
1217.7948
 11
834.23739
 21
1207.7951
  0
ARC
  8
0-2
  6
CONTINUOUS
 62
    3
 10
334.23802
 20
1257.795
 40
4.9997686
 50
90
 51
270
  0
ARC
  8
0-2
  6
CONTINUOUS
 62
    3
 10
334.23802
 20
1212.7949
 40
4.9997686
 50
90
 51
270
  0
ARC
  8
0-2
  6
CONTINUOUS
 62
    3
 10
834.23739
 20
1257.795
 40
4.9997686
 50
270
 51
90
  0
ARC
  8
0-2
  6
CONTINUOUS
 62
    3
 10
834.23739
 20
1212.7949
 40
4.9997686
 50
270
 51
90
  0
ARC
  8
0-2
  6
CONTINUOUS
 62
    3
 10
426.738
 20
1092.7954
 40
4.9997686
 50
90
 51
270
  0
ARC
  8
0-2
  6
CONTINUOUS
 62
    3
 10
426.738
 20
1137.7954
 40
4.9997686
 50
90
 51
270
  0
ARC
  8
0-2
  6
CONTINUOUS
 62
    3
 10
741.738
 20
1092.7954
 40
4.9997686
 50
270
 51
90
  0
ARC
  8
0-2
  6
CONTINUOUS
 62
    3
 10
741.738
 20
1137.7954
 40
4.9997686
 50
270
 51
90
  0
ARC
  8
0-2
  6
CONTINUOUS
 62
    3
 10
741.738
 20
1282.7958
 40
4.9997686
 50
270
 51
90
  0
ARC
  8
0-2
  6
CONTINUOUS
 62
    3
 10
741.738
 20
1237.796
 40
4.9997686
 50
270
 51
90
  0
ARC
  8
0-3
  6
CONTINUOUS
 62
    3
 10
589.07377
 20
1203.1542
 40
3.0273542
 50
270
 51
0
  0
ARC
  8
0-3
  6
CONTINUOUS
 62
    3
 10
589.07377
 20
1243.6143
 40
3.0273542
 50
0
 51
90
  0
ARC
  8
0-3
  6
CONTINUOUS
 62
    3
 10
608.46686
 20
1161.9627
 40
4.0499993
 50
270
 51
0
  0
ARC
  8
0-3
  6
CONTINUOUS
 62
    3
 10
606.44181
 20
1156.2964
 40
2.0249996
 50
270
 51
0
  0
TEXT
  8
0-d
 10
107.23791
 20
86.035271
 40
15
 41
1
 50
0
  1
図
  0
TEXT
  8
0-d
 10
107.23791
 20
50.035301
 40
15
 41
1
 50
0
  1
番
  0
TEXT
  8
0-d
 10
347.23833
 20
86.035271
 40
15
 41
1
 50
0
  1
承
  0
TEXT
  8
0-d
 10
347.23833
 20
50.035301
 40
15
 41
1
 50
0
  1
認
  0
TEXT
  8
0-d
 10
566.23831
 20
134.03528
 40
15
 41
1
 50
0
  1
尺
  0
TEXT
  8
0-d
 10
566.23831
 20
110.0352
 40
15
 41
1
 50
0
  1
度
  0
TEXT
  8
0-d
 10
467.23813
 20
86.035271
 40
15
 41
1
 50
0
  1
製
  0
TEXT
  8
0-d
 10
467.23813
 20
50.035301
 40
15
 41
1
 50
0
  1
図
  0
TEXT
  8
0-d
 10
887.23818
 20
134.03528
 40
15
 41
1
 50
0
  1
日
  0
TEXT
  8
0-d
 10
887.23818
 20
110.0352
 40
15
 41
1
 50
0
  1
付
  0
TEXT
  8
0-d
 10
621.09394
 20
89.624682
 40
12
 41
1
 50
0
  1
株式
  0
TEXT
  8
0-d
 10
621.09394
 20
76.646414
 40
12
 41
1
 50
0
  1
会社
  0
TEXT
  8
0-d
 10
658.77289
 20
77.483602
 40
24
 41
1
 50
0
  1
スズキベンチレーター
  0
TEXT
  8
0-d
 10
696.98898
 20
47.949828
 40
12
 41
1
 50
0
  1
TEL(054)296-7000  FAX(054)296-7001
  0
TEXT
  8
0-d
 10
604.84753
 20
117.59572
 40
24
 41
1
 50
0
  1
１／６
  0
TEXT
  8
0-8
 10
169.23822
 20
1238.7946
 40
18
 41
1
 50
90
  1
310
  0
TEXT
  8
0-8
 10
571.48807
 20
1499.5605
 40
18
 41
1
 50
0
  1
500
  0
TEXT
  8
0-8
 10
975.83482
 20
1135.0454
 40
18
 41
1
 50
90
  1
120
  0
TEXT
  8
0-8
 10
975.83482
 20
1260.2416
 40
18
 41
1
 50
90
  1
130
  0
TEXT
  8
0-8
 10
975.83482
 20
1359.9913
 40
18
 41
1
 50
90
  1
60
  0
TEXT
  8
0-8
 10
531.79447
 20
995.63278
 40
18
 41
1
 50
0
  1
315φ
  0
TEXT
  8
0-8
 10
808.67116
 20
1175.0456
 40
18
 41
1
 50
90
  1
200
  0
TEXT
  8
0-d
 10
121.34614
 20
1693.5081
 40
30
 41
1
 50
0
  1
ＳＴ－３０　　直付型（網付）　断面
  0
TEXT
  8
0-d
 10
119.8978
 20
113.37192
 40
30
 41
1
 50
0
  1
ＳＴ－３０　直付型　断面
  0
TEXT
  8
0-d
 10
136.39259
 20
78.87649
 40
18
 41
1
 50
0
  1
30-A04a
  0
TEXT
  8
0-d
 10
695.64568
 20
62.722876
 40
12
 41
1
 50
0
  1
〒421-2114　静岡市葵区安倍口新田１５２番地
  0
POINT
  8
0-8
 62
    2
 10
184.23827
 20
1087.7953
  0
POINT
  8
0-8
 62
    2
 10
184.23827
 20
1398.2946
  0
POINT
  8
0-8
 62
    2
 10
334.23802
 20
1484.56
  0
POINT
  8
0-8
 62
    2
 10
834.23798
 20
1484.56
  0
POINT
  8
0-8
 62
    2
 10
981.83484
 20
1087.7956
  0
POINT
  8
0-8
 62
    2
 10
981.83484
 20
1207.7951
  0
POINT
  8
0-8
 62
    2
 10
981.83484
 20
1338.188
  0
POINT
  8
0-8
 62
    2
 10
981.83484
 20
1398.2946
  0
POINT
  8
0-8
 62
    2
 10
426.738
 20
988.41892
  0
POINT
  8
0-8
 62
    2
 10
741.738
 20
988.41892
  0
POINT
  8
0-8
 62
    2
 10
814.67118
 20
1087.7956
  0
POINT
  8
0-8
 62
    2
 10
814.67118
 20
1287.7956
  0
ENDSEC
  0
EOF
