  0
SECTION
  2
HEADER
  9
$EXTMIN
 10
0
 20
0
  9
$EXTMAX
 10
2520
 20
1782
  0
ENDSEC
  0
SECTION
  2
TABLES
  0
TABLE
  2
LTYPE
 70
     9
  0
LTYPE
  2
CONTINUOUS
 70
    64
  3
実線
 72
    65
 73
     0
 40
0.0
  0
LTYPE
  2
DASHED1
 70
    64
  3
--  --  --  --  --  --  --  --  
 72
    65
 73
     2
 40
2.5
 49
1.25
 49
-1.25
  0
LTYPE
  2
DASHED2
 70
    64
  3
----    ----    ----    ----    
 72
    65
 73
     2
 40
5.0
 49
2.5
 49
-2.5
  0
LTYPE
  2
DASHED3
 70
    64
  3
------  ------  ------  ------  
 72
    65
 73
     2
 40
5.0
 49
3.75
 49
-1.25
  0
LTYPE
  2
CENTER1
 70
    64
  3
----- - ----- - ----- - ----- - 
 72
    65
 73
     4
 40
10.0
 49
6.25
 49
-1.25
 49
1.25
 49
-1.25
  0
LTYPE
  2
CENTER2
 70
    64
  3
----------  --  ----------  --  
 72
    65
 73
     4
 40
20.0
 49
12.5
 49
-2.5
 49
2.5
 49
-2.5
  0
LTYPE
  2
PHANTOM1
 70
    64
  3
--- - - --- - - --- - - --- - - 
 72
    65
 73
     6
 40
10.0
 49
3.25
 49
-1.25
 49
1.25
 49
-1.25
 49
1.25
 49
-1.25
  0
LTYPE
  2
PHANTOM2
 70
    64
  3
--------  -  -  --------  -  -  
 72
    65
 73
     6
 40
20.0
 49
10.0
 49
-2.5
 49
1.25
 49
-2.5
 49
1.25
 49
-2.5
  0
LTYPE
  2
DOT
 70
    64
  3
-   -   -   -   -   -   -   -   
 72
    65
 73
     2
 40
2.5
 49
0.625
 49
-1.875
  0
ENDTAB
  0
TABLE
  2
STYLE
 70
    1
  0
STYLE
  2
STANDARD
 70
    64
 40
0.0
 41
1.0
 42
0.0
 50
0.0
 71
     0
  3
TXT
  4
BIGFONT
  0
ENDTAB
  0
TABLE
  2
LAYER
 70
    6
  0
LAYER
  2
0-1
 70
   64
 62
    7
  6
CONTINUOUS
  0
LAYER
  2
0-2
 70
   64
 62
    7
  6
CONTINUOUS
  0
LAYER
  2
0-3
 70
   64
 62
    7
  6
CONTINUOUS
  0
LAYER
  2
0-8
 70
   64
 62
    7
  6
CONTINUOUS
  0
LAYER
  2
0-d
 70
   64
 62
    7
  6
CONTINUOUS
  0
LAYER
  2
ADD_LINE
 70
   64
 62
    7
  6
CONTINUOUS
  0
ENDTAB
  0
ENDSEC
  0
SECTION
  2
ENTITIES
  0
LINE
  8
0-d
  6
CONTINUOUS
 62
    7
 10
104.2379
 20
105.53526
 11
1064.2383
 21
105.53526
  0
LINE
  8
0-d
  6
CONTINUOUS
 62
    7
 10
104.2379
 20
45.535211
 11
104.2379
 21
153.53527
  0
LINE
  8
0-d
  6
CONTINUOUS
 62
    7
 10
104.2379
 20
45.535211
 11
1064.2383
 21
45.535211
  0
LINE
  8
0-d
  6
CONTINUOUS
 62
    7
 10
1064.2383
 20
153.53527
 11
1064.2383
 21
45.535211
  0
LINE
  8
0-d
  6
CONTINUOUS
 62
    7
 10
104.2379
 20
153.53527
 11
1064.2383
 21
153.53527
  0
LINE
  8
0-d
  6
CONTINUOUS
 62
    7
 10
584.23807
 20
153.53527
 11
584.23807
 21
45.535211
  0
LINE
  8
0-d
  6
CONTINUOUS
 62
    7
 10
344.23817
 20
45.535211
 11
344.23817
 21
105.53526
  0
LINE
  8
0-d
  6
CONTINUOUS
 62
    7
 10
584.23807
 20
105.53526
 11
584.23807
 21
153.53527
  0
LINE
  8
0-d
  6
CONTINUOUS
 62
    7
 10
464.23798
 20
45.535211
 11
464.23798
 21
105.53526
  0
LINE
  8
0-d
  6
CONTINUOUS
 62
    7
 10
125.23812
 20
45.535211
 11
125.23812
 21
105.53526
  0
LINE
  8
0-d
  6
CONTINUOUS
 62
    7
 10
365.2381
 20
45.535211
 11
365.2381
 21
105.53526
  0
LINE
  8
0-d
  6
CONTINUOUS
 62
    7
 10
485.23819
 20
45.535211
 11
485.23819
 21
105.53526
  0
LINE
  8
0-d
  6
CONTINUOUS
 62
    7
 10
563.23815
 20
105.53526
 11
563.23815
 21
153.53527
  0
LINE
  8
0-d
  6
CONTINUOUS
 62
    7
 10
884.23832
 20
105.53526
 11
884.23832
 21
153.53527
  0
LINE
  8
0-d
  6
CONTINUOUS
 62
    7
 10
905.23824
 20
105.53526
 11
905.23824
 21
153.53527
  0
LINE
  8
0-d
  6
CONTINUOUS
 62
    7
 10
104.23805
 20
1670.1559
 11
1064.238
 21
1670.1559
  0
LINE
  8
0-d
  6
CONTINUOUS
 62
    7
 10
104.23805
 20
1676.1561
 11
1064.238
 21
1676.1561
  0
LINE
  8
0-8
  6
CONTINUOUS
 62
    7
 10
334.23802
 20
1522.5301
 11
834.23798
 21
1522.5301
  0
LINE
  8
0-8
  6
CONTINUOUS
 62
    7
 10
334.23802
 20
1413.2007
 11
334.23802
 21
1522.5301
  0
LINE
  8
0-8
  6
CONTINUOUS
 62
    7
 10
834.23798
 20
1413.2007
 11
834.23798
 21
1522.5301
  0
LINE
  8
0-2
  6
CONTINUOUS
 62
    3
 10
322.93813
 20
1373.5539
 11
584.238
 21
1436.2646
  0
LINE
  8
0-2
  6
CONTINUOUS
 62
    3
 10
845.53757
 20
1373.5539
 11
584.238
 21
1436.2646
  0
LINE
  8
0-8
  6
CONTINUOUS
 62
    7
 10
184.23827
 20
1085.7655
 11
184.23827
 21
1436.2646
  0
LINE
  8
0-8
  6
CONTINUOUS
 62
    7
 10
301.73897
 20
1085.7655
 11
184.23827
 21
1085.7655
  0
LINE
  8
0-8
  6
CONTINUOUS
 62
    7
 10
324.23808
 20
1008.4547
 11
844.23806
 21
1008.4547
  0
LINE
  8
0-2
  6
CONTINUOUS
 62
    3
 10
334.23802
 20
1376.265
 11
334.23802
 21
1300.7649
  0
LINE
  8
0-2
  6
CONTINUOUS
 62
    3
 10
334.23802
 20
1290.7651
 11
334.23802
 21
1255.7647
  0
LINE
  8
0-2
  6
CONTINUOUS
 62
    3
 10
834.23798
 20
1376.265
 11
834.23798
 21
1300.7649
  0
LINE
  8
0-8
  6
CONTINUOUS
 62
    7
 10
384.29024
 20
1436.2646
 11
184.23827
 21
1436.2646
  0
LINE
  8
0-2
  6
CONTINUOUS
 62
    3
 10
741.73874
 20
1330.7657
 11
584.23859
 21
1330.7657
  0
LINE
  8
0-2
  6
CONTINUOUS
 62
    3
 10
334.23802
 20
1245.7651
 11
584.238
 21
1245.7651
  0
LINE
  8
0-2
  6
CONTINUOUS
 62
    3
 10
334.23802
 20
1255.7649
 11
584.238
 21
1255.7649
  0
LINE
  8
0-2
  6
CONTINUOUS
 62
    3
 10
334.23802
 20
1290.7651
 11
584.238
 21
1290.7651
  0
LINE
  8
0-2
  6
CONTINUOUS
 62
    3
 10
334.23802
 20
1300.7649
 11
584.238
 21
1300.7649
  0
LINE
  8
0-2
  6
CONTINUOUS
 62
    3
 10
741.738
 20
1245.7651
 11
834.23798
 21
1245.7651
  0
LINE
  8
0-2
  6
CONTINUOUS
 62
    3
 10
741.738
 20
1255.7649
 11
834.23798
 21
1255.7649
  0
LINE
  8
0-2
  6
CONTINUOUS
 62
    3
 10
834.23739
 20
1290.7651
 11
834.23739
 21
1255.7647
  0
LINE
  8
0-2
  6
CONTINUOUS
 62
    3
 10
628.47252
 20
1376.265
 11
834.23798
 21
1376.265
  0
LINE
  8
0-2
  6
CONTINUOUS
 62
    3
 10
334.23802
 20
1376.265
 11
584.238
 21
1376.265
  0
LINE
  8
0-8
  6
CONTINUOUS
 62
    7
 10
741.738
 20
1145.7651
 11
798.42107
 21
1145.7651
  0
LINE
  8
0-8
  6
CONTINUOUS
 62
    7
 10
981.83484
 20
1245.7651
 11
981.83484
 21
1376.1581
  0
LINE
  8
0-8
  6
CONTINUOUS
 62
    7
 10
981.83484
 20
1376.1581
 11
981.83484
 21
1436.2646
  0
LINE
  8
0-2
  6
CONTINUOUS
 62
    3
 10
741.73874
 20
1320.7656
 11
584.238
 21
1320.7656
  0
LINE
  8
0-8
  6
CONTINUOUS
 62
    7
 10
741.738
 20
1330.7657
 11
798.42107
 21
1330.7657
  0
LINE
  8
0-8
  6
CONTINUOUS
 62
    7
 10
798.42107
 20
1145.7651
 11
798.42107
 21
1330.7657
  0
LINE
  8
0-2
  6
CONTINUOUS
 62
    3
 10
324.23808
 20
1085.7651
 11
324.23808
 21
1145.7651
  0
LINE
  8
0-2
  6
CONTINUOUS
 62
    3
 10
324.23808
 20
1085.7651
 11
844.23806
 21
1085.7651
  0
LINE
  8
0-2
  6
CONTINUOUS
 62
    3
 10
844.23806
 20
1085.7651
 11
844.23806
 21
1145.7651
  0
LINE
  8
0-2
  6
CONTINUOUS
 62
    3
 10
324.23808
 20
1145.7651
 11
844.23806
 21
1145.7651
  0
LINE
  8
0-2
  6
CONTINUOUS
 62
    3
 10
426.738
 20
1225.7648
 11
584.238
 21
1225.7648
  0
LINE
  8
0-2
  6
CONTINUOUS
 62
    3
 10
426.738
 20
1215.765
 11
584.238
 21
1215.765
  0
LINE
  8
0-2
  6
CONTINUOUS
 62
    3
 10
741.738
 20
1320.7656
 11
741.738
 21
1225.7649
  0
LINE
  8
0-2
  6
CONTINUOUS
 62
    3
 10
741.738
 20
1290.7651
 11
834.23798
 21
1290.7651
  0
LINE
  8
0-2
  6
CONTINUOUS
 62
    3
 10
741.738
 20
1300.7649
 11
834.23798
 21
1300.7649
  0
LINE
  8
0-8
  6
CONTINUOUS
 62
    7
 10
981.83484
 20
1085.7651
 11
981.83484
 21
1145.7651
  0
LINE
  8
0-8
  6
CONTINUOUS
 62
    7
 10
981.83484
 20
1145.7651
 11
981.83484
 21
1245.7651
  0
LINE
  8
0-8
  6
CONTINUOUS
 62
    7
 10
324.23808
 20
1070.9935
 11
324.23808
 21
1008.4547
  0
LINE
  8
0-8
  6
CONTINUOUS
 62
    7
 10
844.23806
 20
1070.9935
 11
844.23806
 21
1008.4547
  0
LINE
  8
0-2
  6
CONTINUOUS
 62
    3
 10
426.738
 20
1245.7651
 11
426.738
 21
1225.7645
  0
LINE
  8
0-2
  6
CONTINUOUS
 62
    3
 10
324.23808
 20
1145.7651
 11
447.99951
 21
1215.765
  0
LINE
  8
0-3
  6
CONTINUOUS
 62
    3
 10
595.32929
 20
1279.9419
 11
598.24809
 21
1281.7356
  0
LINE
  8
0-3
  6
CONTINUOUS
 62
    3
 10
598.24809
 20
1281.7356
 11
601.15308
 21
1283.5653
  0
LINE
  8
0-3
  6
CONTINUOUS
 62
    3
 10
601.15308
 20
1283.5653
 11
604.03076
 21
1285.4633
  0
LINE
  8
0-3
  6
CONTINUOUS
 62
    3
 10
604.03076
 20
1285.4633
 11
606.84875
 21
1287.4669
  0
LINE
  8
0-3
  6
CONTINUOUS
 62
    3
 10
606.84875
 20
1287.4669
 11
609.55584
 21
1289.6164
  0
LINE
  8
0-3
  6
CONTINUOUS
 62
    3
 10
609.55584
 20
1289.6164
 11
612.09517
 21
1291.9468
  0
LINE
  8
0-3
  6
CONTINUOUS
 62
    3
 10
612.09517
 20
1291.9468
 11
614.41136
 21
1294.4998
  0
LINE
  8
0-3
  6
CONTINUOUS
 62
    3
 10
614.41136
 20
1294.4998
 11
616.44873
 21
1297.3111
  0
LINE
  8
0-3
  6
CONTINUOUS
 62
    3
 10
616.44873
 20
1297.3111
 11
618.22584
 21
1300.3523
  0
LINE
  8
0-3
  6
CONTINUOUS
 62
    3
 10
618.22584
 20
1300.3523
 11
619.90482
 21
1303.4578
  0
LINE
  8
0-3
  6
CONTINUOUS
 62
    3
 10
619.90482
 20
1303.4578
 11
621.65654
 21
1306.4522
  0
LINE
  8
0-3
  6
CONTINUOUS
 62
    3
 10
621.65654
 20
1306.4522
 11
623.66051
 21
1309.1606
  0
LINE
  8
0-3
  6
CONTINUOUS
 62
    3
 10
623.66051
 20
1309.1606
 11
626.08611
 21
1311.4062
  0
LINE
  8
0-3
  6
CONTINUOUS
 62
    3
 10
626.08611
 20
1311.4062
 11
628.98724
 21
1313.1424
  0
LINE
  8
0-3
  6
CONTINUOUS
 62
    3
 10
628.98724
 20
1313.1424
 11
632.18679
 21
1314.5609
  0
LINE
  8
0-3
  6
CONTINUOUS
 62
    3
 10
632.18679
 20
1314.5609
 11
633.70142
 21
1315.1662
  0
LINE
  8
0-3
  6
CONTINUOUS
 62
    3
 10
632.18679
 20
1314.5609
 11
634.29379
 21
1314.8957
  0
LINE
  8
0-3
  6
CONTINUOUS
 62
    3
 10
634.29379
 20
1314.8957
 11
636.41979
 21
1315.1869
  0
LINE
  8
0-3
  6
CONTINUOUS
 62
    3
 10
636.41979
 20
1315.1869
 11
638.58068
 21
1315.3954
  0
LINE
  8
0-3
  6
CONTINUOUS
 62
    3
 10
638.58068
 20
1315.3954
 11
640.79473
 21
1315.4745
  0
LINE
  8
0-3
  6
CONTINUOUS
 62
    3
 10
640.79473
 20
1315.4745
 11
643.07632
 21
1315.3853
  0
LINE
  8
0-3
  6
CONTINUOUS
 62
    3
 10
643.07632
 20
1315.3853
 11
645.3591
 21
1315.0526
  0
LINE
  8
0-3
  6
CONTINUOUS
 62
    3
 10
645.3591
 20
1315.0526
 11
647.48881
 21
1314.3852
  0
LINE
  8
0-3
  6
CONTINUOUS
 62
    3
 10
647.48881
 20
1314.3852
 11
649.30393
 21
1313.2798
  0
LINE
  8
0-3
  6
CONTINUOUS
 62
    3
 10
649.30393
 20
1313.2798
 11
650.67411
 21
1311.664
  0
LINE
  8
0-3
  6
CONTINUOUS
 62
    3
 10
650.67411
 20
1311.664
 11
651.7423
 21
1309.7239
  0
LINE
  8
0-3
  6
CONTINUOUS
 62
    3
 10
594.1833
 20
1271.9241
 11
597.60376
 21
1272.4319
  0
LINE
  8
0-3
  6
CONTINUOUS
 62
    3
 10
597.60376
 20
1272.4319
 11
601.00314
 21
1273.0066
  0
LINE
  8
0-3
  6
CONTINUOUS
 62
    3
 10
601.00314
 20
1273.0066
 11
604.3651
 21
1273.7087
  0
LINE
  8
0-3
  6
CONTINUOUS
 62
    3
 10
604.3651
 20
1273.7087
 11
607.66664
 21
1274.6072
  0
LINE
  8
0-3
  6
CONTINUOUS
 62
    3
 10
607.66664
 20
1274.6072
 11
610.89083
 21
1275.7638
  0
LINE
  8
0-3
  6
CONTINUOUS
 62
    3
 10
610.89083
 20
1275.7638
 11
614.01941
 21
1277.1947
  0
LINE
  8
0-3
  6
CONTINUOUS
 62
    3
 10
614.01941
 20
1277.1947
 11
617.03887
 21
1278.8716
  0
LINE
  8
0-3
  6
CONTINUOUS
 62
    3
 10
617.03887
 20
1278.8716
 11
619.93302
 21
1280.7757
  0
LINE
  8
0-3
  6
CONTINUOUS
 62
    3
 10
619.93302
 20
1280.7757
 11
622.68792
 21
1282.8732
  0
LINE
  8
0-3
  6
CONTINUOUS
 62
    3
 10
622.68792
 20
1282.8732
 11
625.2902
 21
1285.1433
  0
LINE
  8
0-3
  6
CONTINUOUS
 62
    3
 10
625.2902
 20
1285.1433
 11
627.76019
 21
1287.5453
  0
LINE
  8
0-3
  6
CONTINUOUS
 62
    3
 10
627.76019
 20
1287.5453
 11
630.14749
 21
1290.0244
  0
LINE
  8
0-3
  6
CONTINUOUS
 62
    3
 10
630.14749
 20
1290.0244
 11
632.5045
 21
1292.526
  0
LINE
  8
0-3
  6
CONTINUOUS
 62
    3
 10
632.5045
 20
1292.526
 11
634.88126
 21
1294.9945
  0
LINE
  8
0-3
  6
CONTINUOUS
 62
    3
 10
634.88126
 20
1294.9945
 11
637.33195
 21
1297.3763
  0
LINE
  8
0-3
  6
CONTINUOUS
 62
    3
 10
637.33195
 20
1297.3763
 11
639.90335
 21
1299.6238
  0
LINE
  8
0-3
  6
CONTINUOUS
 62
    3
 10
639.90335
 20
1299.6238
 11
642.59233
 21
1301.7355
  0
LINE
  8
0-3
  6
CONTINUOUS
 62
    3
 10
642.59233
 20
1301.7355
 11
645.37706
 21
1303.7435
  0
LINE
  8
0-3
  6
CONTINUOUS
 62
    3
 10
645.37706
 20
1303.7435
 11
648.22802
 21
1305.6734
  0
LINE
  8
0-3
  6
CONTINUOUS
 62
    3
 10
648.22802
 20
1305.6734
 11
651.12425
 21
1307.555
  0
LINE
  8
0-3
  6
CONTINUOUS
 62
    3
 10
651.12425
 20
1307.555
 11
653.17454
 21
1308.8653
  0
LINE
  8
0-3
  6
CONTINUOUS
 62
    3
 10
653.17454
 20
1308.8653
 11
656.37364
 21
1310.1923
  0
LINE
  8
0-3
  6
CONTINUOUS
 62
    3
 10
656.37364
 20
1310.1923
 11
659.59114
 21
1311.4312
  0
LINE
  8
0-3
  6
CONTINUOUS
 62
    3
 10
659.59114
 20
1311.4312
 11
662.84666
 21
1312.4948
  0
LINE
  8
0-3
  6
CONTINUOUS
 62
    3
 10
662.84666
 20
1312.4948
 11
666.15934
 21
1313.2963
  0
LINE
  8
0-3
  6
CONTINUOUS
 62
    3
 10
666.15934
 20
1313.2963
 11
669.53689
 21
1313.7872
  0
LINE
  8
0-3
  6
CONTINUOUS
 62
    3
 10
669.53689
 20
1313.7872
 11
672.96299
 21
1314.0029
  0
LINE
  8
0-3
  6
CONTINUOUS
 62
    3
 10
672.96299
 20
1314.0029
 11
676.41775
 21
1313.9903
  0
LINE
  8
0-3
  6
CONTINUOUS
 62
    3
 10
676.41775
 20
1313.9903
 11
679.88274
 21
1313.7958
  0
LINE
  8
0-3
  6
CONTINUOUS
 62
    3
 10
679.88274
 20
1313.7958
 11
683.34166
 21
1313.4676
  0
LINE
  8
0-3
  6
CONTINUOUS
 62
    3
 10
683.34166
 20
1313.4676
 11
686.7737
 21
1313.0456
  0
LINE
  8
0-3
  6
CONTINUOUS
 62
    3
 10
686.7737
 20
1313.0456
 11
690.17589
 21
1312.5205
  0
LINE
  8
0-3
  6
CONTINUOUS
 62
    3
 10
690.17589
 20
1312.5205
 11
693.54899
 21
1311.8815
  0
LINE
  8
0-3
  6
CONTINUOUS
 62
    3
 10
693.54899
 20
1311.8815
 11
696.8881
 21
1311.1063
  0
LINE
  8
0-3
  6
CONTINUOUS
 62
    3
 10
696.8881
 20
1311.1063
 11
700.19513
 21
1310.1816
  0
LINE
  8
0-3
  6
CONTINUOUS
 62
    3
 10
700.19513
 20
1310.1816
 11
703.46891
 21
1309.0869
  0
LINE
  8
0-3
  6
CONTINUOUS
 62
    3
 10
703.46891
 20
1309.0869
 11
706.69607
 21
1307.8065
  0
LINE
  8
0-3
  6
CONTINUOUS
 62
    3
 10
706.69607
 20
1307.8065
 11
709.84662
 21
1306.3263
  0
LINE
  8
0-3
  6
CONTINUOUS
 62
    3
 10
709.84662
 20
1306.3263
 11
712.87454
 21
1304.6371
  0
LINE
  8
0-3
  6
CONTINUOUS
 62
    3
 10
712.87454
 20
1304.6371
 11
715.74049
 21
1302.7234
  0
LINE
  8
0-3
  6
CONTINUOUS
 62
    3
 10
715.74049
 20
1302.7234
 11
718.40304
 21
1300.5705
  0
LINE
  8
0-3
  6
CONTINUOUS
 62
    3
 10
718.40304
 20
1300.5705
 11
720.82508
 21
1298.1727
  0
LINE
  8
0-3
  6
CONTINUOUS
 62
    3
 10
720.82508
 20
1298.1727
 11
723.03793
 21
1295.5651
  0
LINE
  8
0-3
  6
CONTINUOUS
 62
    3
 10
723.03793
 20
1295.5651
 11
725.09668
 21
1292.8053
  0
LINE
  8
0-3
  6
CONTINUOUS
 62
    3
 10
725.09668
 20
1292.8053
 11
727.05967
 21
1289.9518
  0
LINE
  8
0-3
  6
CONTINUOUS
 62
    3
 10
727.05967
 20
1289.9518
 11
728.20032
 21
1288.2476
  0
LINE
  8
0-3
  6
CONTINUOUS
 62
    3
 10
727.05967
 20
1289.9518
 11
728.59449
 21
1286.7735
  0
LINE
  8
0-3
  6
CONTINUOUS
 62
    3
 10
728.59449
 20
1286.7735
 11
730.04765
 21
1283.5809
  0
LINE
  8
0-3
  6
CONTINUOUS
 62
    3
 10
730.04765
 20
1283.5809
 11
731.34048
 21
1280.3661
  0
LINE
  8
0-3
  6
CONTINUOUS
 62
    3
 10
731.34048
 20
1280.3661
 11
732.39056
 21
1277.1111
  0
LINE
  8
0-3
  6
CONTINUOUS
 62
    3
 10
732.39056
 20
1277.1111
 11
733.11804
 21
1273.8075
  0
LINE
  8
0-3
  6
CONTINUOUS
 62
    3
 10
733.11804
 20
1273.8075
 11
733.4451
 21
1270.4417
  0
LINE
  8
0-3
  6
CONTINUOUS
 62
    3
 10
733.4451
 20
1270.4417
 11
733.35127
 21
1267.0278
  0
LINE
  8
0-3
  6
CONTINUOUS
 62
    3
 10
733.35127
 20
1267.0278
 11
732.89371
 21
1263.5989
  0
LINE
  8
0-3
  6
CONTINUOUS
 62
    3
 10
732.89371
 20
1263.5989
 11
732.1312
 21
1260.1943
  0
LINE
  8
0-3
  6
CONTINUOUS
 62
    3
 10
732.1312
 20
1260.1943
 11
731.1163
 21
1256.8535
  0
LINE
  8
0-3
  6
CONTINUOUS
 62
    3
 10
731.1163
 20
1256.8535
 11
729.86579
 21
1253.6225
  0
LINE
  8
0-3
  6
CONTINUOUS
 62
    3
 10
729.86579
 20
1253.6225
 11
728.34596
 21
1250.5467
  0
LINE
  8
0-3
  6
CONTINUOUS
 62
    3
 10
728.34596
 20
1250.5467
 11
726.52
 21
1247.6739
  0
LINE
  8
0-3
  6
CONTINUOUS
 62
    3
 10
726.52
 20
1247.6739
 11
724.39237
 21
1245.0213
  0
LINE
  8
0-3
  6
CONTINUOUS
 62
    3
 10
724.39237
 20
1245.0213
 11
722.02734
 21
1242.5393
  0
LINE
  8
0-3
  6
CONTINUOUS
 62
    3
 10
722.02734
 20
1242.5393
 11
719.49915
 21
1240.1767
  0
LINE
  8
0-3
  6
CONTINUOUS
 62
    3
 10
719.49915
 20
1240.1767
 11
716.87891
 21
1237.8828
  0
LINE
  8
0-3
  6
CONTINUOUS
 62
    3
 10
716.87891
 20
1237.8828
 11
716.17252
 21
1237.2757
  0
LINE
  8
0-3
  6
CONTINUOUS
 62
    3
 10
716.87891
 20
1237.8828
 11
713.87162
 21
1236.1969
  0
LINE
  8
0-3
  6
CONTINUOUS
 62
    3
 10
713.87162
 20
1236.1969
 11
710.85276
 21
1234.5419
  0
LINE
  8
0-3
  6
CONTINUOUS
 62
    3
 10
710.85276
 20
1234.5419
 11
707.80895
 21
1232.9473
  0
LINE
  8
0-3
  6
CONTINUOUS
 62
    3
 10
707.80895
 20
1232.9473
 11
704.72328
 21
1231.4431
  0
LINE
  8
0-3
  6
CONTINUOUS
 62
    3
 10
704.72328
 20
1231.4431
 11
701.58831
 21
1230.059
  0
LINE
  8
0-3
  6
CONTINUOUS
 62
    3
 10
701.58831
 20
1230.059
 11
698.38639
 21
1228.8248
  0
LINE
  8
0-3
  6
CONTINUOUS
 62
    3
 10
698.38639
 20
1228.8248
 11
695.11707
 21
1227.7581
  0
LINE
  8
0-3
  6
CONTINUOUS
 62
    3
 10
695.11707
 20
1227.7581
 11
691.79356
 21
1226.8629
  0
LINE
  8
0-3
  6
CONTINUOUS
 62
    3
 10
691.79356
 20
1226.8629
 11
688.42847
 21
1226.1375
  0
LINE
  8
0-3
  6
CONTINUOUS
 62
    3
 10
688.42847
 20
1226.1375
 11
685.03251
 21
1225.5828
  0
LINE
  8
0-3
  6
CONTINUOUS
 62
    3
 10
685.03251
 20
1225.5828
 11
681.62185
 21
1225.1947
  0
LINE
  8
0-3
  6
CONTINUOUS
 62
    3
 10
681.62185
 20
1225.1947
 11
678.19976
 21
1224.9435
  0
LINE
  8
0-3
  6
CONTINUOUS
 62
    3
 10
678.19976
 20
1224.9435
 11
674.76905
 21
1224.7969
  0
LINE
  8
0-3
  6
CONTINUOUS
 62
    3
 10
674.76905
 20
1224.7969
 11
671.33048
 21
1224.7174
  0
LINE
  8
0-3
  6
CONTINUOUS
 62
    3
 10
671.33048
 20
1224.7174
 11
668.35007
 21
1224.6756
  0
LINE
  8
0-3
  6
CONTINUOUS
 62
    3
 10
629.93014
 20
1224.3597
 11
633.14587
 21
1223.0581
  0
LINE
  8
0-3
  6
CONTINUOUS
 62
    3
 10
633.14587
 20
1223.0581
 11
636.38075
 21
1221.7714
  0
LINE
  8
0-3
  6
CONTINUOUS
 62
    3
 10
636.38075
 20
1221.7714
 11
639.64561
 21
1220.5855
  0
LINE
  8
0-3
  6
CONTINUOUS
 62
    3
 10
639.64561
 20
1220.5855
 11
642.94181
 21
1219.5969
  0
LINE
  8
0-3
  6
CONTINUOUS
 62
    3
 10
642.94181
 20
1219.5969
 11
646.27839
 21
1218.8997
  0
LINE
  8
0-3
  6
CONTINUOUS
 62
    3
 10
646.27839
 20
1218.8997
 11
649.66247
 21
1218.5874
  0
LINE
  8
0-3
  6
CONTINUOUS
 62
    3
 10
649.66247
 20
1218.5874
 11
653.0859
 21
1218.6362
  0
LINE
  8
0-3
  6
CONTINUOUS
 62
    3
 10
653.0859
 20
1218.6362
 11
656.53442
 21
1218.8906
  0
LINE
  8
0-3
  6
CONTINUOUS
 62
    3
 10
656.53442
 20
1218.8906
 11
657.18232
 21
1218.9478
  0
LINE
  8
0-3
  6
CONTINUOUS
 62
    3
 10
656.53442
 20
1218.8906
 11
659.3542
 21
1219.5194
  0
LINE
  8
0-3
  6
CONTINUOUS
 62
    3
 10
659.3542
 20
1219.5194
 11
662.06054
 21
1220.3896
  0
LINE
  8
0-3
  6
CONTINUOUS
 62
    3
 10
662.06054
 20
1220.3896
 11
664.54375
 21
1221.7444
  0
LINE
  8
0-3
  6
CONTINUOUS
 62
    3
 10
664.54375
 20
1221.7444
 11
666.6607
 21
1223.6883
  0
LINE
  8
0-3
  6
CONTINUOUS
 62
    3
 10
666.6607
 20
1223.6883
 11
668.23041
 21
1226.1251
  0
LINE
  8
0-3
  6
CONTINUOUS
 62
    3
 10
668.23041
 20
1226.1251
 11
669.08526
 21
1228.9112
  0
LINE
  8
0-3
  6
CONTINUOUS
 62
    3
 10
669.08526
 20
1228.9112
 11
669.14836
 21
1231.7927
  0
LINE
  8
0-3
  6
CONTINUOUS
 62
    3
 10
669.14836
 20
1231.7927
 11
668.38585
 21
1234.4924
  0
LINE
  8
0-3
  6
CONTINUOUS
 62
    3
 10
668.38585
 20
1234.4924
 11
666.96089
 21
1236.9483
  0
LINE
  8
0-3
  6
CONTINUOUS
 62
    3
 10
666.96089
 20
1236.9483
 11
665.2007
 21
1239.2797
  0
LINE
  8
0-3
  6
CONTINUOUS
 62
    3
 10
599.1313
 20
1267.4794
 11
602.5969
 21
1266.8894
  0
LINE
  8
0-3
  6
CONTINUOUS
 62
    3
 10
602.5969
 20
1266.8894
 11
606.05106
 21
1266.399
  0
LINE
  8
0-3
  6
CONTINUOUS
 62
    3
 10
606.05106
 20
1266.399
 11
609.47998
 21
1266.1079
  0
LINE
  8
0-3
  6
CONTINUOUS
 62
    3
 10
609.47998
 20
1266.1079
 11
612.87178
 21
1266.1131
  0
LINE
  8
0-3
  6
CONTINUOUS
 62
    3
 10
612.87178
 20
1266.1131
 11
616.21386
 21
1266.512
  0
LINE
  8
0-3
  6
CONTINUOUS
 62
    3
 10
616.21386
 20
1266.512
 11
619.50693
 21
1267.3228
  0
LINE
  8
0-3
  6
CONTINUOUS
 62
    3
 10
619.50693
 20
1267.3228
 11
622.758
 21
1268.4354
  0
LINE
  8
0-3
  6
CONTINUOUS
 62
    3
 10
622.758
 20
1268.4354
 11
625.98263
 21
1269.7402
  0
LINE
  8
0-3
  6
CONTINUOUS
 62
    3
 10
625.98263
 20
1269.7402
 11
629.18722
 21
1271.1191
  0
LINE
  8
0-3
  6
CONTINUOUS
 62
    3
 10
629.18722
 20
1271.1191
 11
632.3884
 21
1272.4727
  0
LINE
  8
0-3
  6
CONTINUOUS
 62
    3
 10
632.3884
 20
1272.4727
 11
635.58602
 21
1273.7758
  0
LINE
  8
0-3
  6
CONTINUOUS
 62
    3
 10
635.58602
 20
1273.7758
 11
638.78363
 21
1275.0399
  0
LINE
  8
0-3
  6
CONTINUOUS
 62
    3
 10
638.78363
 20
1275.0399
 11
641.97769
 21
1276.2726
  0
LINE
  8
0-3
  6
CONTINUOUS
 62
    3
 10
641.97769
 20
1276.2726
 11
645.17174
 21
1277.4826
  0
LINE
  8
0-3
  6
CONTINUOUS
 62
    3
 10
645.17174
 20
1277.4826
 11
648.36638
 21
1278.6813
  0
LINE
  8
0-3
  6
CONTINUOUS
 62
    3
 10
648.36638
 20
1278.6813
 11
648.32184
 21
1275.7389
  0
LINE
  8
0-3
  6
CONTINUOUS
 62
    3
 10
648.32184
 20
1275.7389
 11
648.27953
 21
1272.8001
  0
LINE
  8
0-3
  6
CONTINUOUS
 62
    3
 10
648.27953
 20
1272.8001
 11
648.23722
 21
1269.8575
  0
LINE
  8
0-3
  6
CONTINUOUS
 62
    3
 10
648.23722
 20
1269.8575
 11
648.19298
 21
1266.9179
  0
LINE
  8
0-3
  6
CONTINUOUS
 62
    3
 10
648.19298
 20
1266.9179
 11
648.15081
 21
1263.9786
  0
LINE
  8
0-3
  6
CONTINUOUS
 62
    3
 10
648.15081
 20
1263.9786
 11
648.10835
 21
1261.0361
  0
LINE
  8
0-3
  6
CONTINUOUS
 62
    3
 10
648.10835
 20
1261.0361
 11
648.06396
 21
1258.0971
  0
LINE
  8
0-3
  6
CONTINUOUS
 62
    3
 10
648.06396
 20
1258.0971
 11
648.02195
 21
1255.1548
  0
LINE
  8
0-3
  6
CONTINUOUS
 62
    3
 10
648.02195
 20
1255.1548
 11
647.978
 21
1252.2148
  0
LINE
  8
0-3
  6
CONTINUOUS
 62
    3
 10
647.978
 20
1252.2148
 11
647.93524
 21
1249.2731
  0
LINE
  8
0-3
  6
CONTINUOUS
 62
    3
 10
665.2007
 20
1239.2797
 11
664.49758
 21
1239.8994
  0
LINE
  8
0-3
  6
CONTINUOUS
 62
    3
 10
664.49758
 20
1239.8994
 11
663.48699
 21
1240.649
  0
LINE
  8
0-3
  6
CONTINUOUS
 62
    3
 10
663.48699
 20
1240.649
 11
662.20916
 21
1241.5065
  0
LINE
  8
0-3
  6
CONTINUOUS
 62
    3
 10
662.20916
 20
1241.5065
 11
660.69839
 21
1242.4511
  0
LINE
  8
0-3
  6
CONTINUOUS
 62
    3
 10
660.69839
 20
1242.4511
 11
658.97606
 21
1243.4642
  0
LINE
  8
0-3
  6
CONTINUOUS
 62
    3
 10
658.97606
 20
1243.4642
 11
657.0729
 21
1244.5325
  0
LINE
  8
0-3
  6
CONTINUOUS
 62
    3
 10
657.0729
 20
1244.5325
 11
655.00717
 21
1245.6429
  0
LINE
  8
0-3
  6
CONTINUOUS
 62
    3
 10
655.00717
 20
1245.6429
 11
652.79447
 21
1246.7834
  0
LINE
  8
0-3
  6
CONTINUOUS
 62
    3
 10
652.79447
 20
1246.7834
 11
650.45483
 21
1247.9456
  0
LINE
  8
0-3
  6
CONTINUOUS
 62
    3
 10
650.45483
 20
1247.9456
 11
648.00087
 21
1249.1199
  0
LINE
  8
0-3
  6
CONTINUOUS
 62
    3
 10
648.00087
 20
1249.1199
 11
645.44165
 21
1250.2992
  0
LINE
  8
0-3
  6
CONTINUOUS
 62
    3
 10
645.44165
 20
1250.2992
 11
642.79335
 21
1251.48
  0
LINE
  8
0-3
  6
CONTINUOUS
 62
    3
 10
642.79335
 20
1251.48
 11
640.06324
 21
1252.6548
  0
LINE
  8
0-3
  6
CONTINUOUS
 62
    3
 10
640.06324
 20
1252.6548
 11
637.265
 21
1253.8203
  0
LINE
  8
0-3
  6
CONTINUOUS
 62
    3
 10
637.265
 20
1253.8203
 11
634.40618
 21
1254.9734
  0
LINE
  8
0-3
  6
CONTINUOUS
 62
    3
 10
634.40618
 20
1254.9734
 11
631.49821
 21
1256.1088
  0
LINE
  8
0-3
  6
CONTINUOUS
 62
    3
 10
631.49821
 20
1256.1088
 11
628.55135
 21
1257.2256
  0
LINE
  8
0-3
  6
CONTINUOUS
 62
    3
 10
628.55135
 20
1257.2256
 11
625.57777
 21
1258.3214
  0
LINE
  8
0-3
  6
CONTINUOUS
 62
    3
 10
625.57777
 20
1258.3214
 11
622.59008
 21
1259.3949
  0
LINE
  8
0-3
  6
CONTINUOUS
 62
    3
 10
622.59008
 20
1259.3949
 11
619.59913
 21
1260.4398
  0
LINE
  8
0-3
  6
CONTINUOUS
 62
    3
 10
619.59913
 20
1260.4398
 11
616.61723
 21
1261.4565
  0
LINE
  8
0-3
  6
CONTINUOUS
 62
    3
 10
616.61723
 20
1261.4565
 11
613.65894
 21
1262.4444
  0
LINE
  8
0-3
  6
CONTINUOUS
 62
    3
 10
613.65894
 20
1262.4444
 11
610.74044
 21
1263.3971
  0
LINE
  8
0-3
  6
CONTINUOUS
 62
    3
 10
610.74044
 20
1263.3971
 11
607.87271
 21
1264.3153
  0
LINE
  8
0-3
  6
CONTINUOUS
 62
    3
 10
607.87271
 20
1264.3153
 11
605.07446
 21
1265.1948
  0
LINE
  8
0-3
  6
CONTINUOUS
 62
    3
 10
605.07446
 20
1265.1948
 11
602.3601
 21
1266.0316
  0
LINE
  8
0-3
  6
CONTINUOUS
 62
    3
 10
602.3601
 20
1266.0316
 11
599.7452
 21
1266.8223
  0
LINE
  8
0-3
  6
CONTINUOUS
 62
    3
 10
599.7452
 20
1266.8223
 11
597.24344
 21
1267.5649
  0
LINE
  8
0-3
  6
CONTINUOUS
 62
    3
 10
597.24344
 20
1267.5649
 11
594.87083
 21
1268.253
  0
LINE
  8
0-3
  6
CONTINUOUS
 62
    3
 10
648.36638
 20
1278.6813
 11
648.40721
 21
1278.6953
  0
LINE
  8
0-3
  6
CONTINUOUS
 62
    3
 10
601.60738
 20
1221.4865
 11
601.60738
 21
1214.7343
  0
LINE
  8
0-3
  6
CONTINUOUS
 62
    3
 10
601.60738
 20
1214.7343
 11
622.12628
 21
1214.7343
  0
LINE
  8
0-3
  6
CONTINUOUS
 62
    3
 10
622.12628
 20
1221.4865
 11
622.12628
 21
1214.7343
  0
LINE
  8
0-3
  6
CONTINUOUS
 62
    3
 10
601.60738
 20
1221.4865
 11
622.12628
 21
1221.4865
  0
LINE
  8
0-3
  6
CONTINUOUS
 62
    3
 10
592.1002
 20
1286.5843
 11
592.1002
 21
1264.4303
  0
LINE
  8
0-3
  6
CONTINUOUS
 62
    3
 10
595.32929
 20
1279.9419
 11
594.99406
 21
1279.7522
  0
LINE
  8
0-3
  6
CONTINUOUS
 62
    3
 10
594.99406
 20
1279.7522
 11
594.65096
 21
1279.5531
  0
LINE
  8
0-3
  6
CONTINUOUS
 62
    3
 10
594.65096
 20
1279.5531
 11
594.3037
 21
1279.3446
  0
LINE
  8
0-3
  6
CONTINUOUS
 62
    3
 10
594.3037
 20
1279.3446
 11
593.94902
 21
1279.1261
  0
LINE
  8
0-3
  6
CONTINUOUS
 62
    3
 10
593.94902
 20
1279.1261
 11
593.58722
 21
1278.9004
  0
LINE
  8
0-3
  6
CONTINUOUS
 62
    3
 10
593.58722
 20
1278.9004
 11
593.21917
 21
1278.6632
  0
LINE
  8
0-3
  6
CONTINUOUS
 62
    3
 10
593.21917
 20
1278.6632
 11
592.84505
 21
1278.4181
  0
LINE
  8
0-3
  6
CONTINUOUS
 62
    3
 10
592.84505
 20
1278.4181
 11
592.46349
 21
1278.1621
  0
LINE
  8
0-3
  6
CONTINUOUS
 62
    3
 10
592.46349
 20
1278.1621
 11
592.07674
 21
1277.8986
  0
LINE
  8
0-3
  6
CONTINUOUS
 62
    3
 10
594.1833
 20
1271.9241
 11
593.93477
 21
1271.8765
  0
LINE
  8
0-3
  6
CONTINUOUS
 62
    3
 10
593.93477
 20
1271.8765
 11
593.68966
 21
1271.8321
  0
LINE
  8
0-3
  6
CONTINUOUS
 62
    3
 10
593.68966
 20
1271.8321
 11
593.44885
 21
1271.7883
  0
LINE
  8
0-3
  6
CONTINUOUS
 62
    3
 10
593.44885
 20
1271.7883
 11
593.21056
 21
1271.7452
  0
LINE
  8
0-3
  6
CONTINUOUS
 62
    3
 10
593.21056
 20
1271.7452
 11
592.97733
 21
1271.7044
  0
LINE
  8
0-3
  6
CONTINUOUS
 62
    3
 10
592.97733
 20
1271.7044
 11
592.74632
 21
1271.6662
  0
LINE
  8
0-3
  6
CONTINUOUS
 62
    3
 10
592.74632
 20
1271.6662
 11
592.51961
 21
1271.6303
  0
LINE
  8
0-3
  6
CONTINUOUS
 62
    3
 10
592.51961
 20
1271.6303
 11
592.29558
 21
1271.5954
  0
LINE
  8
0-3
  6
CONTINUOUS
 62
    3
 10
592.29558
 20
1271.5954
 11
592.07674
 21
1271.5614
  0
LINE
  8
0-3
  6
CONTINUOUS
 62
    3
 10
599.1313
 20
1267.4794
 11
598.18663
 21
1267.6798
  0
LINE
  8
0-3
  6
CONTINUOUS
 62
    3
 10
598.18663
 20
1267.6798
 11
597.28026
 21
1267.8733
  0
LINE
  8
0-3
  6
CONTINUOUS
 62
    3
 10
597.28026
 20
1267.8733
 11
596.41545
 21
1268.0606
  0
LINE
  8
0-3
  6
CONTINUOUS
 62
    3
 10
596.41545
 20
1268.0606
 11
595.59118
 21
1268.2424
  0
LINE
  8
0-3
  6
CONTINUOUS
 62
    3
 10
595.59118
 20
1268.2424
 11
594.8067
 21
1268.4171
  0
LINE
  8
0-3
  6
CONTINUOUS
 62
    3
 10
594.8067
 20
1268.4171
 11
594.06379
 21
1268.5868
  0
LINE
  8
0-3
  6
CONTINUOUS
 62
    3
 10
594.06379
 20
1268.5868
 11
593.36066
 21
1268.7494
  0
LINE
  8
0-3
  6
CONTINUOUS
 62
    3
 10
593.36066
 20
1268.7494
 11
592.69851
 21
1268.9064
  0
LINE
  8
0-3
  6
CONTINUOUS
 62
    3
 10
592.69851
 20
1268.9064
 11
592.07674
 21
1269.0561
  0
LINE
  8
0-3
  6
CONTINUOUS
 62
    3
 10
594.87083
 20
1268.253
 11
594.50116
 21
1268.3536
  0
LINE
  8
0-3
  6
CONTINUOUS
 62
    3
 10
594.50116
 20
1268.3536
 11
594.14663
 21
1268.4505
  0
LINE
  8
0-3
  6
CONTINUOUS
 62
    3
 10
594.14663
 20
1268.4505
 11
593.80724
 21
1268.546
  0
LINE
  8
0-3
  6
CONTINUOUS
 62
    3
 10
593.80724
 20
1268.546
 11
593.48389
 21
1268.6379
  0
LINE
  8
0-3
  6
CONTINUOUS
 62
    3
 10
593.48389
 20
1268.6379
 11
593.17701
 21
1268.7264
  0
LINE
  8
0-3
  6
CONTINUOUS
 62
    3
 10
593.17701
 20
1268.7264
 11
592.88394
 21
1268.8105
  0
LINE
  8
0-3
  6
CONTINUOUS
 62
    3
 10
592.88394
 20
1268.8105
 11
592.60676
 21
1268.8931
  0
LINE
  8
0-3
  6
CONTINUOUS
 62
    3
 10
592.60676
 20
1268.8931
 11
592.34591
 21
1268.9732
  0
LINE
  8
0-3
  6
CONTINUOUS
 62
    3
 10
592.34591
 20
1268.9732
 11
592.1002
 21
1269.0513
  0
LINE
  8
0-3
  6
CONTINUOUS
 62
    3
 10
589.07377
 20
1289.6124
 11
584.23859
 21
1289.6124
  0
LINE
  8
0-3
  6
CONTINUOUS
 62
    3
 10
589.07377
 20
1243.0962
 11
584.23859
 21
1243.0962
  0
LINE
  8
0-3
  6
CONTINUOUS
 62
    3
 10
586.76426
 20
1258.8679
 11
588.51792
 21
1256.8883
  0
LINE
  8
0-3
  6
CONTINUOUS
 62
    3
 10
588.51792
 20
1256.8883
 11
590.44542
 21
1254.8318
  0
LINE
  8
0-3
  6
CONTINUOUS
 62
    3
 10
590.44542
 20
1254.8318
 11
592.51842
 21
1252.7222
  0
LINE
  8
0-3
  6
CONTINUOUS
 62
    3
 10
592.51842
 20
1252.7222
 11
594.71064
 21
1250.5817
  0
LINE
  8
0-3
  6
CONTINUOUS
 62
    3
 10
594.71064
 20
1250.5817
 11
596.99684
 21
1248.4307
  0
LINE
  8
0-3
  6
CONTINUOUS
 62
    3
 10
596.99684
 20
1248.4307
 11
599.354
 21
1246.288
  0
LINE
  8
0-3
  6
CONTINUOUS
 62
    3
 10
599.354
 20
1246.288
 11
601.75986
 21
1244.1703
  0
LINE
  8
0-3
  6
CONTINUOUS
 62
    3
 10
601.75986
 20
1244.1703
 11
604.19466
 21
1242.0934
  0
LINE
  8
0-3
  6
CONTINUOUS
 62
    3
 10
604.19466
 20
1242.0934
 11
606.63986
 21
1240.0714
  0
LINE
  8
0-3
  6
CONTINUOUS
 62
    3
 10
606.63986
 20
1240.0714
 11
609.07838
 21
1238.1168
  0
LINE
  8
0-3
  6
CONTINUOUS
 62
    3
 10
609.07838
 20
1238.1168
 11
611.49493
 21
1236.2403
  0
LINE
  8
0-3
  6
CONTINUOUS
 62
    3
 10
611.49493
 20
1236.2403
 11
613.87599
 21
1234.4508
  0
LINE
  8
0-3
  6
CONTINUOUS
 62
    3
 10
613.87599
 20
1234.4508
 11
616.20925
 21
1232.7565
  0
LINE
  8
0-3
  6
CONTINUOUS
 62
    3
 10
616.20925
 20
1232.7565
 11
618.48431
 21
1231.1627
  0
LINE
  8
0-3
  6
CONTINUOUS
 62
    3
 10
618.48431
 20
1231.1627
 11
620.69257
 21
1229.674
  0
LINE
  8
0-3
  6
CONTINUOUS
 62
    3
 10
620.69257
 20
1229.674
 11
622.82614
 21
1228.2932
  0
LINE
  8
0-3
  6
CONTINUOUS
 62
    3
 10
622.82614
 20
1228.2932
 11
624.87999
 21
1227.0214
  0
LINE
  8
0-3
  6
CONTINUOUS
 62
    3
 10
624.87999
 20
1227.0214
 11
626.84981
 21
1225.8585
  0
LINE
  8
0-3
  6
CONTINUOUS
 62
    3
 10
626.84981
 20
1225.8585
 11
628.73292
 21
1224.8018
  0
LINE
  8
0-3
  6
CONTINUOUS
 62
    3
 10
628.73292
 20
1224.8018
 11
628.87144
 21
1224.7412
  0
LINE
  8
0-3
  6
CONTINUOUS
 62
    3
 10
628.87144
 20
1224.7412
 11
629.00877
 21
1224.6836
  0
LINE
  8
0-3
  6
CONTINUOUS
 62
    3
 10
629.00877
 20
1224.6836
 11
629.14476
 21
1224.6286
  0
LINE
  8
0-3
  6
CONTINUOUS
 62
    3
 10
629.14476
 20
1224.6286
 11
629.27912
 21
1224.5767
  0
LINE
  8
0-3
  6
CONTINUOUS
 62
    3
 10
629.27912
 20
1224.5767
 11
629.412
 21
1224.5277
  0
LINE
  8
0-3
  6
CONTINUOUS
 62
    3
 10
629.412
 20
1224.5277
 11
629.54369
 21
1224.4813
  0
LINE
  8
0-3
  6
CONTINUOUS
 62
    3
 10
629.54369
 20
1224.4813
 11
629.67404
 21
1224.4377
  0
LINE
  8
0-3
  6
CONTINUOUS
 62
    3
 10
629.67404
 20
1224.4377
 11
629.80276
 21
1224.3976
  0
LINE
  8
0-3
  6
CONTINUOUS
 62
    3
 10
629.80276
 20
1224.3976
 11
629.93014
 21
1224.3597
  0
LINE
  8
0-3
  6
CONTINUOUS
 62
    3
 10
586.76426
 20
1258.8679
 11
587.80098
 21
1259.3828
  0
LINE
  8
0-3
  6
CONTINUOUS
 62
    3
 10
587.80098
 20
1259.3828
 11
588.72666
 21
1259.9233
  0
LINE
  8
0-3
  6
CONTINUOUS
 62
    3
 10
588.72666
 20
1259.9233
 11
589.54143
 21
1260.4899
  0
LINE
  8
0-3
  6
CONTINUOUS
 62
    3
 10
589.54143
 20
1260.4899
 11
590.24529
 21
1261.0821
  0
LINE
  8
0-3
  6
CONTINUOUS
 62
    3
 10
590.24529
 20
1261.0821
 11
590.83826
 21
1261.7004
  0
LINE
  8
0-3
  6
CONTINUOUS
 62
    3
 10
590.83826
 20
1261.7004
 11
591.32017
 21
1262.3442
  0
LINE
  8
0-3
  6
CONTINUOUS
 62
    3
 10
591.32017
 20
1262.3442
 11
591.69118
 21
1263.0139
  0
LINE
  8
0-3
  6
CONTINUOUS
 62
    3
 10
591.69118
 20
1263.0139
 11
591.95114
 21
1263.709
  0
LINE
  8
0-3
  6
CONTINUOUS
 62
    3
 10
591.95114
 20
1263.709
 11
592.1002
 21
1264.4303
  0
LINE
  8
0-3
  6
CONTINUOUS
 62
    3
 10
592.10109
 20
1246.1242
 11
592.10109
 21
1253.1468
  0
LINE
  8
0-3
  6
CONTINUOUS
 62
    3
 10
631.41953
 20
1272.2555
 11
625.45781
 21
1285.3954
  0
LINE
  8
0-3
  6
CONTINUOUS
 62
    3
 10
608.46686
 20
1200.8829
 11
584.23859
 21
1200.8829
  0
LINE
  8
0-3
  6
CONTINUOUS
 62
    3
 10
612.51681
 20
1204.9328
 11
612.51681
 21
1214.7343
  0
LINE
  8
0-3
  6
CONTINUOUS
 62
    3
 10
606.44181
 20
1197.2411
 11
584.23859
 21
1197.2411
  0
LINE
  8
0-3
  6
CONTINUOUS
 62
    3
 10
608.46686
 20
1199.2664
 11
608.46686
 21
1200.8829
  0
LINE
  8
0-3
  6
CONTINUOUS
 62
    3
 10
612.51681
 20
1234.5215
 11
612.51681
 21
1221.4865
  0
LINE
  8
0-3
  6
CONTINUOUS
 62
    3
 10
607.51684
 20
1239.5215
 11
584.23859
 21
1239.5215
  0
LINE
  8
0-2
  6
CONTINUOUS
 62
    3
 10
426.738
 20
1215.765
 11
426.738
 21
1203.7394
  0
LINE
  8
0-2
  6
CONTINUOUS
 62
    3
 10
622.12628
 20
1215.7651
 11
741.73874
 21
1215.7651
  0
LINE
  8
0-2
  6
CONTINUOUS
 62
    3
 10
686.14718
 20
1225.7649
 11
741.73874
 21
1225.7649
  0
LINE
  8
0-2
  6
CONTINUOUS
 62
    3
 10
741.738
 20
1215.7649
 11
741.738
 21
1145.7651
  0
LINE
  8
0-2
  6
CONTINUOUS
 62
    3
 10
844.23806
 20
1145.7651
 11
741.738
 21
1203.7394
  0
LINE
  8
0-2
  6
CONTINUOUS
 62
    3
 10
447.99951
 20
1215.765
 11
447.99951
 21
1145.7651
  0
LINE
  8
0-1
  6
CENTER2
 62
    7
 10
584.238
 20
1057.8304
 11
584.238
 21
1436.2646
  0
LINE
  8
0-8
  6
CONTINUOUS
 62
    7
 10
855.47589
 20
1436.2646
 11
981.83484
 21
1436.2646
  0
LINE
  8
0-8
  6
CONTINUOUS
 62
    7
 10
855.47589
 20
1376.1581
 11
981.83484
 21
1376.1581
  0
LINE
  8
0-8
  6
CONTINUOUS
 62
    7
 10
855.47589
 20
1245.7651
 11
981.83484
 21
1245.7651
  0
LINE
  8
0-8
  6
CONTINUOUS
 62
    7
 10
855.47589
 20
1145.7651
 11
981.83484
 21
1145.7651
  0
LINE
  8
0-8
  6
CONTINUOUS
 62
    7
 10
855.47589
 20
1085.7651
 11
981.83484
 21
1085.7651
  0
LINE
  8
0-2
  6
CONTINUOUS
 62
    3
 10
694.81242
 20
1409.7273
 11
584.238
 21
1409.7273
  0
LINE
  8
0-2
  6
CONTINUOUS
 62
    3
 10
584.238
 20
1357.7263
 11
694.81242
 21
1409.7273
  0
ARC
  8
0-2
  6
CONTINUOUS
 62
    3
 10
426.738
 20
1220.7648
 40
4.9997686
 50
90
 51
270
  0
ARC
  8
0-2
  6
CONTINUOUS
 62
    3
 10
741.738
 20
1220.7649
 40
4.9997686
 50
270
 51
90
  0
ARC
  8
0-2
  6
CONTINUOUS
 62
    3
 10
334.23802
 20
1295.765
 40
4.9997686
 50
90
 51
270
  0
ARC
  8
0-2
  6
CONTINUOUS
 62
    3
 10
334.23802
 20
1250.7649
 40
4.9997686
 50
90
 51
270
  0
ARC
  8
0-2
  6
CONTINUOUS
 62
    3
 10
834.23739
 20
1295.765
 40
4.9997686
 50
270
 51
90
  0
ARC
  8
0-2
  6
CONTINUOUS
 62
    3
 10
834.23739
 20
1250.7649
 40
4.9997686
 50
270
 51
90
  0
ARC
  8
0-2
  6
CONTINUOUS
 62
    3
 10
741.738
 20
1325.7659
 40
4.9997686
 50
270
 51
90
  0
ARC
  8
0-3
  6
CONTINUOUS
 62
    3
 10
589.07377
 20
1246.1242
 40
3.0273542
 50
270
 51
0
  0
ARC
  8
0-3
  6
CONTINUOUS
 62
    3
 10
589.07377
 20
1286.5843
 40
3.0273542
 50
0
 51
90
  0
ARC
  8
0-3
  6
CONTINUOUS
 62
    3
 10
608.46686
 20
1204.9328
 40
4.0499993
 50
270
 51
0
  0
ARC
  8
0-3
  6
CONTINUOUS
 62
    3
 10
606.44181
 20
1199.2664
 40
2.0249996
 50
270
 51
0
  0
TEXT
  8
0-d
 10
107.23791
 20
86.035271
 40
15
 41
1
 50
0
  1
図
  0
TEXT
  8
0-d
 10
107.23791
 20
50.035301
 40
15
 41
1
 50
0
  1
番
  0
TEXT
  8
0-d
 10
347.23833
 20
86.035271
 40
15
 41
1
 50
0
  1
承
  0
TEXT
  8
0-d
 10
347.23833
 20
50.035301
 40
15
 41
1
 50
0
  1
認
  0
TEXT
  8
0-d
 10
566.23831
 20
134.03528
 40
15
 41
1
 50
0
  1
尺
  0
TEXT
  8
0-d
 10
566.23831
 20
110.0352
 40
15
 41
1
 50
0
  1
度
  0
TEXT
  8
0-d
 10
467.23813
 20
86.035271
 40
15
 41
1
 50
0
  1
製
  0
TEXT
  8
0-d
 10
467.23813
 20
50.035301
 40
15
 41
1
 50
0
  1
図
  0
TEXT
  8
0-d
 10
887.23818
 20
134.03528
 40
15
 41
1
 50
0
  1
日
  0
TEXT
  8
0-d
 10
887.23818
 20
110.0352
 40
15
 41
1
 50
0
  1
付
  0
TEXT
  8
0-d
 10
621.09394
 20
89.624682
 40
12
 41
1
 50
0
  1
株式
  0
TEXT
  8
0-d
 10
621.09394
 20
76.646414
 40
12
 41
1
 50
0
  1
会社
  0
TEXT
  8
0-d
 10
658.77289
 20
77.483602
 40
24
 41
1
 50
0
  1
スズキベンチレーター
  0
TEXT
  8
0-d
 10
696.98898
 20
47.949828
 40
12
 41
1
 50
0
  1
TEL(054)296-7000  FAX(054)296-7001
  0
TEXT
  8
0-d
 10
604.84753
 20
117.59572
 40
24
 41
1
 50
0
  1
１／６
  0
TEXT
  8
0-8
 10
571.48807
 20
1537.5306
 40
18
 41
1
 50
0.0002899
  1
500
  0
TEXT
  8
0-8
 10
975.83482
 20
1298.2116
 40
18
 41
1
 50
90
  1
130
  0
TEXT
  8
0-8
 10
975.83482
 20
1397.9612
 40
18
 41
1
 50
90
  1
60
  0
TEXT
  8
0-8
 10
793.33336
 20
1201.0939
 40
18
 41
1
 50
90
  1
185
  0
TEXT
  8
0-8
 10
975.83482
 20
1107.5151
 40
18
 41
1
 50
90
  1
60
  0
TEXT
  8
0-8
 10
975.83482
 20
1183.0151
 40
18
 41
1
 50
90
  1
100
  0
TEXT
  8
0-8
 10
169.23822
 20
1276.7646
 40
18
 41
1
 50
90
  1
350
  0
TEXT
  8
0-8
 10
547.75908
 20
1012.9882
 40
18
 41
1
 50
0
  1
520*520
  0
TEXT
  8
0-d
 10
116.96252
 20
1688.8841
 40
30
 41
1
 50
0
  1
ＳＴ－３０　　架台型　断面
  0
TEXT
  8
0-1
 10
127.74351
 20
115.05981
 40
24
 41
1
 50
0
  1
ＳＴ－３０　　架台型　断面
  0
TEXT
  8
0-d
 10
136.39259
 20
78.87649
 40
18
 41
1
 50
0
  1
30-A03b
  0
TEXT
  8
0-d
 10
695.64568
 20
62.722876
 40
12
 41
1
 50
0
  1
〒421-2114　静岡市葵区安倍口新田１５２番地
  0
POINT
  8
0-8
 62
    2
 10
334.23802
 20
1522.5301
  0
POINT
  8
0-8
 62
    2
 10
834.23798
 20
1522.5301
  0
POINT
  8
0-8
 62
    2
 10
184.23827
 20
1085.7655
  0
POINT
  8
0-8
 62
    2
 10
184.23827
 20
1436.2646
  0
POINT
  8
0-8
 62
    2
 10
324.23808
 20
1008.4547
  0
POINT
  8
0-8
 62
    2
 10
844.23806
 20
1008.4547
  0
POINT
  8
0-8
 62
    2
 10
798.42107
 20
1145.7651
  0
POINT
  8
0-8
 62
    2
 10
798.42107
 20
1330.7657
  0
POINT
  8
0-8
 62
    2
 10
981.83484
 20
1245.7651
  0
POINT
  8
0-8
 62
    2
 10
981.83484
 20
1376.1581
  0
POINT
  8
0-8
 62
    2
 10
981.83484
 20
1436.2646
  0
POINT
  8
0-8
 62
    2
 10
981.83484
 20
1085.7651
  0
POINT
  8
0-8
 62
    2
 10
981.83484
 20
1145.7651
  0
ENDSEC
  0
EOF
