  0
SECTION
  2
HEADER
  9
$EXTMIN
 10
0
 20
0
  9
$EXTMAX
 10
2520
 20
1782
  0
ENDSEC
  0
SECTION
  2
TABLES
  0
TABLE
  2
LTYPE
 70
     9
  0
LTYPE
  2
CONTINUOUS
 70
    64
  3
実線
 72
    65
 73
     0
 40
0.0
  0
LTYPE
  2
DASHED1
 70
    64
  3
--  --  --  --  --  --  --  --  
 72
    65
 73
     2
 40
2.5
 49
1.25
 49
-1.25
  0
LTYPE
  2
DASHED2
 70
    64
  3
----    ----    ----    ----    
 72
    65
 73
     2
 40
5.0
 49
2.5
 49
-2.5
  0
LTYPE
  2
DASHED3
 70
    64
  3
------  ------  ------  ------  
 72
    65
 73
     2
 40
5.0
 49
3.75
 49
-1.25
  0
LTYPE
  2
CENTER1
 70
    64
  3
----- - ----- - ----- - ----- - 
 72
    65
 73
     4
 40
10.0
 49
6.25
 49
-1.25
 49
1.25
 49
-1.25
  0
LTYPE
  2
CENTER2
 70
    64
  3
----------  --  ----------  --  
 72
    65
 73
     4
 40
20.0
 49
12.5
 49
-2.5
 49
2.5
 49
-2.5
  0
LTYPE
  2
PHANTOM1
 70
    64
  3
--- - - --- - - --- - - --- - - 
 72
    65
 73
     6
 40
10.0
 49
3.25
 49
-1.25
 49
1.25
 49
-1.25
 49
1.25
 49
-1.25
  0
LTYPE
  2
PHANTOM2
 70
    64
  3
--------  -  -  --------  -  -  
 72
    65
 73
     6
 40
20.0
 49
10.0
 49
-2.5
 49
1.25
 49
-2.5
 49
1.25
 49
-2.5
  0
LTYPE
  2
DOT
 70
    64
  3
-   -   -   -   -   -   -   -   
 72
    65
 73
     2
 40
2.5
 49
0.625
 49
-1.875
  0
ENDTAB
  0
TABLE
  2
STYLE
 70
    1
  0
STYLE
  2
STANDARD
 70
    64
 40
0.0
 41
1.0
 42
0.0
 50
0.0
 71
     0
  3
TXT
  4
BIGFONT
  0
ENDTAB
  0
TABLE
  2
LAYER
 70
    5
  0
LAYER
  2
0-1
 70
   64
 62
    7
  6
CONTINUOUS
  0
LAYER
  2
0-3
 70
   64
 62
    7
  6
CONTINUOUS
  0
LAYER
  2
0-8
 70
   64
 62
    7
  6
CONTINUOUS
  0
LAYER
  2
0-d
 70
   64
 62
    7
  6
CONTINUOUS
  0
LAYER
  2
ADD_LINE
 70
   64
 62
    7
  6
CONTINUOUS
  0
ENDTAB
  0
ENDSEC
  0
SECTION
  2
ENTITIES
  0
LINE
  8
0-d
  6
CONTINUOUS
 62
    7
 10
104.2379
 20
105.53526
 11
1064.2383
 21
105.53526
  0
LINE
  8
0-d
  6
CONTINUOUS
 62
    7
 10
104.2379
 20
45.535211
 11
104.2379
 21
153.53527
  0
LINE
  8
0-d
  6
CONTINUOUS
 62
    7
 10
104.2379
 20
45.535211
 11
1064.2383
 21
45.535211
  0
LINE
  8
0-d
  6
CONTINUOUS
 62
    7
 10
1064.2383
 20
153.53527
 11
1064.2383
 21
45.535211
  0
LINE
  8
0-d
  6
CONTINUOUS
 62
    7
 10
104.2379
 20
153.53527
 11
1064.2383
 21
153.53527
  0
LINE
  8
0-d
  6
CONTINUOUS
 62
    7
 10
584.23807
 20
153.53527
 11
584.23807
 21
45.535211
  0
LINE
  8
0-d
  6
CONTINUOUS
 62
    7
 10
344.23817
 20
45.535211
 11
344.23817
 21
105.53526
  0
LINE
  8
0-d
  6
CONTINUOUS
 62
    7
 10
584.23807
 20
105.53526
 11
584.23807
 21
153.53527
  0
LINE
  8
0-d
  6
CONTINUOUS
 62
    7
 10
464.23798
 20
45.535211
 11
464.23798
 21
105.53526
  0
LINE
  8
0-d
  6
CONTINUOUS
 62
    7
 10
125.23812
 20
45.535211
 11
125.23812
 21
105.53526
  0
LINE
  8
0-d
  6
CONTINUOUS
 62
    7
 10
365.2381
 20
45.535211
 11
365.2381
 21
105.53526
  0
LINE
  8
0-d
  6
CONTINUOUS
 62
    7
 10
485.23819
 20
45.535211
 11
485.23819
 21
105.53526
  0
LINE
  8
0-d
  6
CONTINUOUS
 62
    7
 10
563.23815
 20
105.53526
 11
563.23815
 21
153.53527
  0
LINE
  8
0-d
  6
CONTINUOUS
 62
    7
 10
884.23832
 20
105.53526
 11
884.23832
 21
153.53527
  0
LINE
  8
0-d
  6
CONTINUOUS
 62
    7
 10
905.23824
 20
105.53526
 11
905.23824
 21
153.53527
  0
LINE
  8
0-3
  6
CONTINUOUS
 62
    3
 10
322.93836
 20
1385.5838
 11
584.23822
 21
1448.2946
  0
LINE
  8
0-3
  6
CONTINUOUS
 62
    3
 10
845.53779
 20
1385.5838
 11
584.23822
 21
1448.2946
  0
LINE
  8
0-8
  6
CONTINUOUS
 62
    7
 10
184.23834
 20
1137.7954
 11
184.23834
 21
1448.2946
  0
LINE
  8
0-8
  6
CONTINUOUS
 62
    7
 10
301.73905
 20
1137.7954
 11
184.23834
 21
1137.7954
  0
LINE
  8
0-8
  6
CONTINUOUS
 62
    7
 10
334.23824
 20
1534.56
 11
834.2382
 21
1534.56
  0
LINE
  8
0-8
  6
CONTINUOUS
 62
    7
 10
426.73822
 20
1038.4188
 11
741.73822
 21
1038.4188
  0
LINE
  8
0-d
  6
CONTINUOUS
 62
    7
 10
104.23805
 20
1670.1559
 11
1064.238
 21
1670.1559
  0
LINE
  8
0-d
  6
CONTINUOUS
 62
    7
 10
104.23805
 20
1676.1561
 11
1064.238
 21
1676.1561
  0
LINE
  8
0-3
  6
CONTINUOUS
 62
    3
 10
334.23824
 20
1388.2949
 11
334.23824
 21
1312.7947
  0
LINE
  8
0-3
  6
CONTINUOUS
 62
    3
 10
334.23824
 20
1302.7951
 11
334.23824
 21
1267.7947
  0
LINE
  8
0-3
  6
CONTINUOUS
 62
    3
 10
834.2382
 20
1388.2949
 11
834.2382
 21
1312.7947
  0
LINE
  8
0-3
  6
CONTINUOUS
 62
    3
 10
426.73822
 20
1182.7956
 11
741.73881
 21
1182.7956
  0
LINE
  8
0-3
  6
CONTINUOUS
 62
    3
 10
426.73822
 20
1192.7953
 11
741.73881
 21
1192.7953
  0
LINE
  8
0-3
  6
CONTINUOUS
 62
    3
 10
426.73822
 20
1147.7955
 11
741.73881
 21
1147.7955
  0
LINE
  8
0-3
  6
CONTINUOUS
 62
    3
 10
426.73822
 20
1137.7957
 11
741.73881
 21
1137.7957
  0
LINE
  8
0-3
  6
CONTINUOUS
 62
    3
 10
426.73822
 20
1182.7956
 11
426.73822
 21
1147.7952
  0
LINE
  8
0-3
  6
CONTINUOUS
 62
    3
 10
741.73822
 20
1182.7956
 11
741.73822
 21
1147.7952
  0
LINE
  8
0-3
  6
CONTINUOUS
 62
    3
 10
426.73822
 20
1257.7951
 11
426.73822
 21
1192.7953
  0
LINE
  8
0-8
  6
CONTINUOUS
 62
    7
 10
426.73822
 20
1115.7292
 11
426.73822
 21
1038.4188
  0
LINE
  8
0-8
  6
CONTINUOUS
 62
    7
 10
741.73822
 20
1115.7292
 11
741.73822
 21
1038.4188
  0
LINE
  8
0-8
  6
CONTINUOUS
 62
    7
 10
334.23824
 20
1416.2304
 11
334.23824
 21
1534.56
  0
LINE
  8
0-8
  6
CONTINUOUS
 62
    7
 10
384.29032
 20
1448.2946
 11
184.23834
 21
1448.2946
  0
LINE
  8
0-8
  6
CONTINUOUS
 62
    7
 10
834.2382
 20
1416.2304
 11
834.2382
 21
1534.56
  0
LINE
  8
0-3
  6
CONTINUOUS
 62
    3
 10
741.73822
 20
1182.7956
 11
741.73822
 21
1147.7952
  0
LINE
  8
0-3
  6
CONTINUOUS
 62
    3
 10
595.32937
 20
1286.9718
 11
598.24817
 21
1288.7656
  0
LINE
  8
0-3
  6
CONTINUOUS
 62
    3
 10
598.24817
 20
1288.7656
 11
601.15301
 21
1290.5952
  0
LINE
  8
0-3
  6
CONTINUOUS
 62
    3
 10
601.15301
 20
1290.5952
 11
604.03083
 21
1292.4932
  0
LINE
  8
0-3
  6
CONTINUOUS
 62
    3
 10
604.03083
 20
1292.4932
 11
606.84868
 21
1294.4969
  0
LINE
  8
0-3
  6
CONTINUOUS
 62
    3
 10
606.84868
 20
1294.4969
 11
609.55577
 21
1296.6462
  0
LINE
  8
0-3
  6
CONTINUOUS
 62
    3
 10
609.55577
 20
1296.6462
 11
612.0951
 21
1298.9766
  0
LINE
  8
0-3
  6
CONTINUOUS
 62
    3
 10
612.0951
 20
1298.9766
 11
614.41143
 21
1301.5296
  0
LINE
  8
0-3
  6
CONTINUOUS
 62
    3
 10
614.41143
 20
1301.5296
 11
616.44895
 21
1304.3411
  0
LINE
  8
0-3
  6
CONTINUOUS
 62
    3
 10
616.44895
 20
1304.3411
 11
618.22576
 21
1307.3822
  0
LINE
  8
0-3
  6
CONTINUOUS
 62
    3
 10
618.22576
 20
1307.3822
 11
619.90489
 21
1310.4878
  0
LINE
  8
0-3
  6
CONTINUOUS
 62
    3
 10
619.90489
 20
1310.4878
 11
621.65647
 21
1313.482
  0
LINE
  8
0-3
  6
CONTINUOUS
 62
    3
 10
621.65647
 20
1313.482
 11
623.66043
 21
1316.1906
  0
LINE
  8
0-3
  6
CONTINUOUS
 62
    3
 10
623.66043
 20
1316.1906
 11
626.08604
 21
1318.4361
  0
LINE
  8
0-3
  6
CONTINUOUS
 62
    3
 10
626.08604
 20
1318.4361
 11
628.98732
 21
1320.1724
  0
LINE
  8
0-3
  6
CONTINUOUS
 62
    3
 10
628.98732
 20
1320.1724
 11
632.18671
 21
1321.5906
  0
LINE
  8
0-3
  6
CONTINUOUS
 62
    3
 10
632.18671
 20
1321.5906
 11
633.70164
 21
1322.1961
  0
LINE
  8
0-3
  6
CONTINUOUS
 62
    3
 10
632.18671
 20
1321.5906
 11
634.29371
 21
1321.9256
  0
LINE
  8
0-3
  6
CONTINUOUS
 62
    3
 10
634.29371
 20
1321.9256
 11
636.41972
 21
1322.2169
  0
LINE
  8
0-3
  6
CONTINUOUS
 62
    3
 10
636.41972
 20
1322.2169
 11
638.58076
 21
1322.4253
  0
LINE
  8
0-3
  6
CONTINUOUS
 62
    3
 10
638.58076
 20
1322.4253
 11
640.79495
 21
1322.5044
  0
LINE
  8
0-3
  6
CONTINUOUS
 62
    3
 10
640.79495
 20
1322.5044
 11
643.07624
 21
1322.4152
  0
LINE
  8
0-3
  6
CONTINUOUS
 62
    3
 10
643.07624
 20
1322.4152
 11
645.35903
 21
1322.0825
  0
LINE
  8
0-3
  6
CONTINUOUS
 62
    3
 10
645.35903
 20
1322.0825
 11
647.48889
 21
1321.4151
  0
LINE
  8
0-3
  6
CONTINUOUS
 62
    3
 10
647.48889
 20
1321.4151
 11
649.30401
 21
1320.3097
  0
LINE
  8
0-3
  6
CONTINUOUS
 62
    3
 10
649.30401
 20
1320.3097
 11
650.67433
 21
1318.694
  0
LINE
  8
0-3
  6
CONTINUOUS
 62
    3
 10
650.67433
 20
1318.694
 11
651.74238
 21
1316.7538
  0
LINE
  8
0-3
  6
CONTINUOUS
 62
    3
 10
594.18352
 20
1278.954
 11
597.60383
 21
1279.4618
  0
LINE
  8
0-3
  6
CONTINUOUS
 62
    3
 10
597.60383
 20
1279.4618
 11
601.00336
 21
1280.0365
  0
LINE
  8
0-3
  6
CONTINUOUS
 62
    3
 10
601.00336
 20
1280.0365
 11
604.36518
 21
1280.7386
  0
LINE
  8
0-3
  6
CONTINUOUS
 62
    3
 10
604.36518
 20
1280.7386
 11
607.66672
 21
1281.6371
  0
LINE
  8
0-3
  6
CONTINUOUS
 62
    3
 10
607.66672
 20
1281.6371
 11
610.89105
 21
1282.7937
  0
LINE
  8
0-3
  6
CONTINUOUS
 62
    3
 10
610.89105
 20
1282.7937
 11
614.01949
 21
1284.2246
  0
LINE
  8
0-3
  6
CONTINUOUS
 62
    3
 10
614.01949
 20
1284.2246
 11
617.03894
 21
1285.9015
  0
LINE
  8
0-3
  6
CONTINUOUS
 62
    3
 10
617.03894
 20
1285.9015
 11
619.9331
 21
1287.8056
  0
LINE
  8
0-3
  6
CONTINUOUS
 62
    3
 10
619.9331
 20
1287.8056
 11
622.68799
 21
1289.9031
  0
LINE
  8
0-3
  6
CONTINUOUS
 62
    3
 10
622.68799
 20
1289.9031
 11
625.29027
 21
1292.1733
  0
LINE
  8
0-3
  6
CONTINUOUS
 62
    3
 10
625.29027
 20
1292.1733
 11
627.76041
 21
1294.5753
  0
LINE
  8
0-3
  6
CONTINUOUS
 62
    3
 10
627.76041
 20
1294.5753
 11
630.14741
 21
1297.0543
  0
LINE
  8
0-3
  6
CONTINUOUS
 62
    3
 10
630.14741
 20
1297.0543
 11
632.50472
 21
1299.5559
  0
LINE
  8
0-3
  6
CONTINUOUS
 62
    3
 10
632.50472
 20
1299.5559
 11
634.88133
 21
1302.0244
  0
LINE
  8
0-3
  6
CONTINUOUS
 62
    3
 10
634.88133
 20
1302.0244
 11
637.33188
 21
1304.4062
  0
LINE
  8
0-3
  6
CONTINUOUS
 62
    3
 10
637.33188
 20
1304.4062
 11
639.90327
 21
1306.6537
  0
LINE
  8
0-3
  6
CONTINUOUS
 62
    3
 10
639.90327
 20
1306.6537
 11
642.59255
 21
1308.7654
  0
LINE
  8
0-3
  6
CONTINUOUS
 62
    3
 10
642.59255
 20
1308.7654
 11
645.37714
 21
1310.7734
  0
LINE
  8
0-3
  6
CONTINUOUS
 62
    3
 10
645.37714
 20
1310.7734
 11
648.22824
 21
1312.7033
  0
LINE
  8
0-3
  6
CONTINUOUS
 62
    3
 10
648.22824
 20
1312.7033
 11
651.12417
 21
1314.5848
  0
LINE
  8
0-3
  6
CONTINUOUS
 62
    3
 10
651.12417
 20
1314.5848
 11
653.17446
 21
1315.8953
  0
LINE
  8
0-3
  6
CONTINUOUS
 62
    3
 10
653.17446
 20
1315.8953
 11
656.37386
 21
1317.2222
  0
LINE
  8
0-3
  6
CONTINUOUS
 62
    3
 10
656.37386
 20
1317.2222
 11
659.59107
 21
1318.4612
  0
LINE
  8
0-3
  6
CONTINUOUS
 62
    3
 10
659.59107
 20
1318.4612
 11
662.84688
 21
1319.5248
  0
LINE
  8
0-3
  6
CONTINUOUS
 62
    3
 10
662.84688
 20
1319.5248
 11
666.15941
 21
1320.3262
  0
LINE
  8
0-3
  6
CONTINUOUS
 62
    3
 10
666.15941
 20
1320.3262
 11
669.53696
 21
1320.8171
  0
LINE
  8
0-3
  6
CONTINUOUS
 62
    3
 10
669.53696
 20
1320.8171
 11
672.96292
 21
1321.0329
  0
LINE
  8
0-3
  6
CONTINUOUS
 62
    3
 10
672.96292
 20
1321.0329
 11
676.41767
 21
1321.0202
  0
LINE
  8
0-3
  6
CONTINUOUS
 62
    3
 10
676.41767
 20
1321.0202
 11
679.88282
 21
1320.8257
  0
LINE
  8
0-3
  6
CONTINUOUS
 62
    3
 10
679.88282
 20
1320.8257
 11
683.34173
 21
1320.4975
  0
LINE
  8
0-3
  6
CONTINUOUS
 62
    3
 10
683.34173
 20
1320.4975
 11
686.77392
 21
1320.0756
  0
LINE
  8
0-3
  6
CONTINUOUS
 62
    3
 10
686.77392
 20
1320.0756
 11
690.17612
 21
1319.5504
  0
LINE
  8
0-3
  6
CONTINUOUS
 62
    3
 10
690.17612
 20
1319.5504
 11
693.54892
 21
1318.9113
  0
LINE
  8
0-3
  6
CONTINUOUS
 62
    3
 10
693.54892
 20
1318.9113
 11
696.88817
 21
1318.1362
  0
LINE
  8
0-3
  6
CONTINUOUS
 62
    3
 10
696.88817
 20
1318.1362
 11
700.19535
 21
1317.2115
  0
LINE
  8
0-3
  6
CONTINUOUS
 62
    3
 10
700.19535
 20
1317.2115
 11
703.46898
 21
1316.1166
  0
LINE
  8
0-3
  6
CONTINUOUS
 62
    3
 10
703.46898
 20
1316.1166
 11
706.69629
 21
1314.8364
  0
LINE
  8
0-3
  6
CONTINUOUS
 62
    3
 10
706.69629
 20
1314.8364
 11
709.84669
 21
1313.3562
  0
LINE
  8
0-3
  6
CONTINUOUS
 62
    3
 10
709.84669
 20
1313.3562
 11
712.87446
 21
1311.667
  0
LINE
  8
0-3
  6
CONTINUOUS
 62
    3
 10
712.87446
 20
1311.667
 11
715.74071
 21
1309.7533
  0
LINE
  8
0-3
  6
CONTINUOUS
 62
    3
 10
715.74071
 20
1309.7533
 11
718.40296
 21
1307.6004
  0
LINE
  8
0-3
  6
CONTINUOUS
 62
    3
 10
718.40296
 20
1307.6004
 11
720.825
 21
1305.2024
  0
LINE
  8
0-3
  6
CONTINUOUS
 62
    3
 10
720.825
 20
1305.2024
 11
723.03801
 21
1302.595
  0
LINE
  8
0-3
  6
CONTINUOUS
 62
    3
 10
723.03801
 20
1302.595
 11
725.09661
 21
1299.8352
  0
LINE
  8
0-3
  6
CONTINUOUS
 62
    3
 10
725.09661
 20
1299.8352
 11
727.0596
 21
1296.9817
  0
LINE
  8
0-3
  6
CONTINUOUS
 62
    3
 10
727.0596
 20
1296.9817
 11
728.20039
 21
1295.2775
  0
LINE
  8
0-3
  6
CONTINUOUS
 62
    3
 10
727.0596
 20
1296.9817
 11
728.59442
 21
1293.8034
  0
LINE
  8
0-3
  6
CONTINUOUS
 62
    3
 10
728.59442
 20
1293.8034
 11
730.04788
 21
1290.6108
  0
LINE
  8
0-3
  6
CONTINUOUS
 62
    3
 10
730.04788
 20
1290.6108
 11
731.3404
 21
1287.396
  0
LINE
  8
0-3
  6
CONTINUOUS
 62
    3
 10
731.3404
 20
1287.396
 11
732.39064
 21
1284.1409
  0
LINE
  8
0-3
  6
CONTINUOUS
 62
    3
 10
732.39064
 20
1284.1409
 11
733.11811
 21
1280.8374
  0
LINE
  8
0-3
  6
CONTINUOUS
 62
    3
 10
733.11811
 20
1280.8374
 11
733.44532
 21
1277.4716
  0
LINE
  8
0-3
  6
CONTINUOUS
 62
    3
 10
733.44532
 20
1277.4716
 11
733.3515
 21
1274.0575
  0
LINE
  8
0-3
  6
CONTINUOUS
 62
    3
 10
733.3515
 20
1274.0575
 11
732.89393
 21
1270.6288
  0
LINE
  8
0-3
  6
CONTINUOUS
 62
    3
 10
732.89393
 20
1270.6288
 11
732.13142
 21
1267.224
  0
LINE
  8
0-3
  6
CONTINUOUS
 62
    3
 10
732.13142
 20
1267.224
 11
731.11652
 21
1263.8835
  0
LINE
  8
0-3
  6
CONTINUOUS
 62
    3
 10
731.11652
 20
1263.8835
 11
729.86586
 21
1260.6523
  0
LINE
  8
0-3
  6
CONTINUOUS
 62
    3
 10
729.86586
 20
1260.6523
 11
728.34618
 21
1257.5767
  0
LINE
  8
0-3
  6
CONTINUOUS
 62
    3
 10
728.34618
 20
1257.5767
 11
726.52008
 21
1254.7038
  0
LINE
  8
0-3
  6
CONTINUOUS
 62
    3
 10
726.52008
 20
1254.7038
 11
724.39259
 21
1252.0512
  0
LINE
  8
0-3
  6
CONTINUOUS
 62
    3
 10
724.39259
 20
1252.0512
 11
722.02726
 21
1249.5692
  0
LINE
  8
0-3
  6
CONTINUOUS
 62
    3
 10
722.02726
 20
1249.5692
 11
719.49922
 21
1247.2067
  0
LINE
  8
0-3
  6
CONTINUOUS
 62
    3
 10
719.49922
 20
1247.2067
 11
716.87883
 21
1244.9126
  0
LINE
  8
0-3
  6
CONTINUOUS
 62
    3
 10
716.87883
 20
1244.9126
 11
716.17244
 21
1244.3056
  0
LINE
  8
0-3
  6
CONTINUOUS
 62
    3
 10
716.87883
 20
1244.9126
 11
713.87155
 21
1243.2269
  0
LINE
  8
0-3
  6
CONTINUOUS
 62
    3
 10
713.87155
 20
1243.2269
 11
710.85298
 21
1241.5718
  0
LINE
  8
0-3
  6
CONTINUOUS
 62
    3
 10
710.85298
 20
1241.5718
 11
707.80888
 21
1239.9772
  0
LINE
  8
0-3
  6
CONTINUOUS
 62
    3
 10
707.80888
 20
1239.9772
 11
704.7235
 21
1238.4729
  0
LINE
  8
0-3
  6
CONTINUOUS
 62
    3
 10
704.7235
 20
1238.4729
 11
701.58854
 21
1237.0889
  0
LINE
  8
0-3
  6
CONTINUOUS
 62
    3
 10
701.58854
 20
1237.0889
 11
698.38647
 21
1235.8547
  0
LINE
  8
0-3
  6
CONTINUOUS
 62
    3
 10
698.38647
 20
1235.8547
 11
695.117
 21
1234.788
  0
LINE
  8
0-3
  6
CONTINUOUS
 62
    3
 10
695.117
 20
1234.788
 11
691.79348
 21
1233.8929
  0
LINE
  8
0-3
  6
CONTINUOUS
 62
    3
 10
691.79348
 20
1233.8929
 11
688.4284
 21
1233.1674
  0
LINE
  8
0-3
  6
CONTINUOUS
 62
    3
 10
688.4284
 20
1233.1674
 11
685.03273
 21
1232.6127
  0
LINE
  8
0-3
  6
CONTINUOUS
 62
    3
 10
685.03273
 20
1232.6127
 11
681.62192
 21
1232.2245
  0
LINE
  8
0-3
  6
CONTINUOUS
 62
    3
 10
681.62192
 20
1232.2245
 11
678.19983
 21
1231.9734
  0
LINE
  8
0-3
  6
CONTINUOUS
 62
    3
 10
678.19983
 20
1231.9734
 11
674.76913
 21
1231.8268
  0
LINE
  8
0-3
  6
CONTINUOUS
 62
    3
 10
674.76913
 20
1231.8268
 11
671.3307
 21
1231.7473
  0
LINE
  8
0-3
  6
CONTINUOUS
 62
    3
 10
671.3307
 20
1231.7473
 11
668.35014
 21
1231.7055
  0
LINE
  8
0-3
  6
CONTINUOUS
 62
    3
 10
629.93036
 20
1231.3895
 11
633.14609
 21
1230.088
  0
LINE
  8
0-3
  6
CONTINUOUS
 62
    3
 10
633.14609
 20
1230.088
 11
636.38082
 21
1228.8013
  0
LINE
  8
0-3
  6
CONTINUOUS
 62
    3
 10
636.38082
 20
1228.8013
 11
639.64584
 21
1227.6154
  0
LINE
  8
0-3
  6
CONTINUOUS
 62
    3
 10
639.64584
 20
1227.6154
 11
642.94203
 21
1226.6269
  0
LINE
  8
0-3
  6
CONTINUOUS
 62
    3
 10
642.94203
 20
1226.6269
 11
646.27861
 21
1225.9296
  0
LINE
  8
0-3
  6
CONTINUOUS
 62
    3
 10
646.27861
 20
1225.9296
 11
649.6624
 21
1225.6173
  0
LINE
  8
0-3
  6
CONTINUOUS
 62
    3
 10
649.6624
 20
1225.6173
 11
653.08598
 21
1225.6662
  0
LINE
  8
0-3
  6
CONTINUOUS
 62
    3
 10
653.08598
 20
1225.6662
 11
656.5345
 21
1225.9206
  0
LINE
  8
0-3
  6
CONTINUOUS
 62
    3
 10
656.5345
 20
1225.9206
 11
657.18239
 21
1225.9777
  0
LINE
  8
0-3
  6
CONTINUOUS
 62
    3
 10
656.5345
 20
1225.9206
 11
659.35412
 21
1226.5493
  0
LINE
  8
0-3
  6
CONTINUOUS
 62
    3
 10
659.35412
 20
1226.5493
 11
662.06062
 21
1227.4195
  0
LINE
  8
0-3
  6
CONTINUOUS
 62
    3
 10
662.06062
 20
1227.4195
 11
664.54383
 21
1228.7743
  0
LINE
  8
0-3
  6
CONTINUOUS
 62
    3
 10
664.54383
 20
1228.7743
 11
666.66092
 21
1230.7182
  0
LINE
  8
0-3
  6
CONTINUOUS
 62
    3
 10
666.66092
 20
1230.7182
 11
668.23048
 21
1233.1551
  0
LINE
  8
0-3
  6
CONTINUOUS
 62
    3
 10
668.23048
 20
1233.1551
 11
669.08534
 21
1235.9412
  0
LINE
  8
0-3
  6
CONTINUOUS
 62
    3
 10
669.08534
 20
1235.9412
 11
669.14858
 21
1238.8227
  0
LINE
  8
0-3
  6
CONTINUOUS
 62
    3
 10
669.14858
 20
1238.8227
 11
668.38607
 21
1241.5223
  0
LINE
  8
0-3
  6
CONTINUOUS
 62
    3
 10
668.38607
 20
1241.5223
 11
666.96112
 21
1243.9783
  0
LINE
  8
0-3
  6
CONTINUOUS
 62
    3
 10
666.96112
 20
1243.9783
 11
665.20063
 21
1246.3095
  0
LINE
  8
0-3
  6
CONTINUOUS
 62
    3
 10
599.13153
 20
1274.5093
 11
602.59697
 21
1273.9193
  0
LINE
  8
0-3
  6
CONTINUOUS
 62
    3
 10
602.59697
 20
1273.9193
 11
606.05113
 21
1273.4289
  0
LINE
  8
0-3
  6
CONTINUOUS
 62
    3
 10
606.05113
 20
1273.4289
 11
609.48005
 21
1273.1378
  0
LINE
  8
0-3
  6
CONTINUOUS
 62
    3
 10
609.48005
 20
1273.1378
 11
612.87186
 21
1273.143
  0
LINE
  8
0-3
  6
CONTINUOUS
 62
    3
 10
612.87186
 20
1273.143
 11
616.21408
 21
1273.5419
  0
LINE
  8
0-3
  6
CONTINUOUS
 62
    3
 10
616.21408
 20
1273.5419
 11
619.50701
 21
1274.3527
  0
LINE
  8
0-3
  6
CONTINUOUS
 62
    3
 10
619.50701
 20
1274.3527
 11
622.75807
 21
1275.4653
  0
LINE
  8
0-3
  6
CONTINUOUS
 62
    3
 10
622.75807
 20
1275.4653
 11
625.98271
 21
1276.7701
  0
LINE
  8
0-3
  6
CONTINUOUS
 62
    3
 10
625.98271
 20
1276.7701
 11
629.18715
 21
1278.1491
  0
LINE
  8
0-3
  6
CONTINUOUS
 62
    3
 10
629.18715
 20
1278.1491
 11
632.38833
 21
1279.5026
  0
LINE
  8
0-3
  6
CONTINUOUS
 62
    3
 10
632.38833
 20
1279.5026
 11
635.58624
 21
1280.8057
  0
LINE
  8
0-3
  6
CONTINUOUS
 62
    3
 10
635.58624
 20
1280.8057
 11
638.78386
 21
1282.0698
  0
LINE
  8
0-3
  6
CONTINUOUS
 62
    3
 10
638.78386
 20
1282.0698
 11
641.97761
 21
1283.3025
  0
LINE
  8
0-3
  6
CONTINUOUS
 62
    3
 10
641.97761
 20
1283.3025
 11
645.17166
 21
1284.5125
  0
LINE
  8
0-3
  6
CONTINUOUS
 62
    3
 10
645.17166
 20
1284.5125
 11
648.36661
 21
1285.7112
  0
LINE
  8
0-3
  6
CONTINUOUS
 62
    3
 10
648.36661
 20
1285.7112
 11
648.32207
 21
1282.7688
  0
LINE
  8
0-3
  6
CONTINUOUS
 62
    3
 10
648.32207
 20
1282.7688
 11
648.27961
 21
1279.83
  0
LINE
  8
0-3
  6
CONTINUOUS
 62
    3
 10
648.27961
 20
1279.83
 11
648.23715
 21
1276.8873
  0
LINE
  8
0-3
  6
CONTINUOUS
 62
    3
 10
648.23715
 20
1276.8873
 11
648.1929
 21
1273.9477
  0
LINE
  8
0-3
  6
CONTINUOUS
 62
    3
 10
648.1929
 20
1273.9477
 11
648.15104
 21
1271.0085
  0
LINE
  8
0-3
  6
CONTINUOUS
 62
    3
 10
648.15104
 20
1271.0085
 11
648.10828
 21
1268.066
  0
LINE
  8
0-3
  6
CONTINUOUS
 62
    3
 10
648.10828
 20
1268.066
 11
648.06404
 21
1265.127
  0
LINE
  8
0-3
  6
CONTINUOUS
 62
    3
 10
648.06404
 20
1265.127
 11
648.02187
 21
1262.1847
  0
LINE
  8
0-3
  6
CONTINUOUS
 62
    3
 10
648.02187
 20
1262.1847
 11
647.97793
 21
1259.2446
  0
LINE
  8
0-3
  6
CONTINUOUS
 62
    3
 10
647.97793
 20
1259.2446
 11
647.93547
 21
1256.303
  0
LINE
  8
0-3
  6
CONTINUOUS
 62
    3
 10
665.20063
 20
1246.3095
 11
664.4978
 21
1246.9293
  0
LINE
  8
0-3
  6
CONTINUOUS
 62
    3
 10
664.4978
 20
1246.9293
 11
663.48706
 21
1247.6791
  0
LINE
  8
0-3
  6
CONTINUOUS
 62
    3
 10
663.48706
 20
1247.6791
 11
662.20938
 21
1248.5363
  0
LINE
  8
0-3
  6
CONTINUOUS
 62
    3
 10
662.20938
 20
1248.5363
 11
660.69831
 21
1249.4811
  0
LINE
  8
0-3
  6
CONTINUOUS
 62
    3
 10
660.69831
 20
1249.4811
 11
658.97613
 21
1250.4939
  0
LINE
  8
0-3
  6
CONTINUOUS
 62
    3
 10
658.97613
 20
1250.4939
 11
657.07283
 21
1251.5624
  0
LINE
  8
0-3
  6
CONTINUOUS
 62
    3
 10
657.07283
 20
1251.5624
 11
655.0071
 21
1252.6728
  0
LINE
  8
0-3
  6
CONTINUOUS
 62
    3
 10
655.0071
 20
1252.6728
 11
652.79469
 21
1253.8132
  0
LINE
  8
0-3
  6
CONTINUOUS
 62
    3
 10
652.79469
 20
1253.8132
 11
650.4549
 21
1254.9753
  0
LINE
  8
0-3
  6
CONTINUOUS
 62
    3
 10
650.4549
 20
1254.9753
 11
648.00079
 21
1256.1498
  0
LINE
  8
0-3
  6
CONTINUOUS
 62
    3
 10
648.00079
 20
1256.1498
 11
645.44187
 21
1257.3291
  0
LINE
  8
0-3
  6
CONTINUOUS
 62
    3
 10
645.44187
 20
1257.3291
 11
642.79327
 21
1258.5098
  0
LINE
  8
0-3
  6
CONTINUOUS
 62
    3
 10
642.79327
 20
1258.5098
 11
640.06332
 21
1259.6848
  0
LINE
  8
0-3
  6
CONTINUOUS
 62
    3
 10
640.06332
 20
1259.6848
 11
637.26507
 21
1260.85
  0
LINE
  8
0-3
  6
CONTINUOUS
 62
    3
 10
637.26507
 20
1260.85
 11
634.40625
 21
1262.0033
  0
LINE
  8
0-3
  6
CONTINUOUS
 62
    3
 10
634.40625
 20
1262.0033
 11
631.49814
 21
1263.1388
  0
LINE
  8
0-3
  6
CONTINUOUS
 62
    3
 10
631.49814
 20
1263.1388
 11
628.55143
 21
1264.2555
  0
LINE
  8
0-3
  6
CONTINUOUS
 62
    3
 10
628.55143
 20
1264.2555
 11
625.57799
 21
1265.3513
  0
LINE
  8
0-3
  6
CONTINUOUS
 62
    3
 10
625.57799
 20
1265.3513
 11
622.59001
 21
1266.4249
  0
LINE
  8
0-3
  6
CONTINUOUS
 62
    3
 10
622.59001
 20
1266.4249
 11
619.59935
 21
1267.4698
  0
LINE
  8
0-3
  6
CONTINUOUS
 62
    3
 10
619.59935
 20
1267.4698
 11
616.61731
 21
1268.4864
  0
LINE
  8
0-3
  6
CONTINUOUS
 62
    3
 10
616.61731
 20
1268.4864
 11
613.65901
 21
1269.4742
  0
LINE
  8
0-3
  6
CONTINUOUS
 62
    3
 10
613.65901
 20
1269.4742
 11
610.74051
 21
1270.427
  0
LINE
  8
0-3
  6
CONTINUOUS
 62
    3
 10
610.74051
 20
1270.427
 11
607.87278
 21
1271.3453
  0
LINE
  8
0-3
  6
CONTINUOUS
 62
    3
 10
607.87278
 20
1271.3453
 11
605.07454
 21
1272.2248
  0
LINE
  8
0-3
  6
CONTINUOUS
 62
    3
 10
605.07454
 20
1272.2248
 11
602.36032
 21
1273.0615
  0
LINE
  8
0-3
  6
CONTINUOUS
 62
    3
 10
602.36032
 20
1273.0615
 11
599.74528
 21
1273.8522
  0
LINE
  8
0-3
  6
CONTINUOUS
 62
    3
 10
599.74528
 20
1273.8522
 11
597.24366
 21
1274.5948
  0
LINE
  8
0-3
  6
CONTINUOUS
 62
    3
 10
597.24366
 20
1274.5948
 11
594.87091
 21
1275.283
  0
LINE
  8
0-3
  6
CONTINUOUS
 62
    3
 10
648.36661
 20
1285.7112
 11
648.40729
 21
1285.725
  0
LINE
  8
0-3
  6
CONTINUOUS
 62
    3
 10
601.60731
 20
1228.5164
 11
601.60731
 21
1221.7643
  0
LINE
  8
0-3
  6
CONTINUOUS
 62
    3
 10
601.60731
 20
1221.7643
 11
622.12621
 21
1221.7643
  0
LINE
  8
0-3
  6
CONTINUOUS
 62
    3
 10
622.12621
 20
1228.5164
 11
622.12621
 21
1221.7643
  0
LINE
  8
0-3
  6
CONTINUOUS
 62
    3
 10
601.60731
 20
1228.5164
 11
622.12621
 21
1228.5164
  0
LINE
  8
0-3
  6
CONTINUOUS
 62
    3
 10
592.10028
 20
1293.6142
 11
592.10028
 21
1271.46
  0
LINE
  8
0-3
  6
CONTINUOUS
 62
    3
 10
595.32937
 20
1286.9718
 11
594.99413
 21
1286.7821
  0
LINE
  8
0-3
  6
CONTINUOUS
 62
    3
 10
594.99413
 20
1286.7821
 11
594.65089
 21
1286.583
  0
LINE
  8
0-3
  6
CONTINUOUS
 62
    3
 10
594.65089
 20
1286.583
 11
594.30378
 21
1286.3746
  0
LINE
  8
0-3
  6
CONTINUOUS
 62
    3
 10
594.30378
 20
1286.3746
 11
593.94895
 21
1286.156
  0
LINE
  8
0-3
  6
CONTINUOUS
 62
    3
 10
593.94895
 20
1286.156
 11
593.58729
 21
1285.9303
  0
LINE
  8
0-3
  6
CONTINUOUS
 62
    3
 10
593.58729
 20
1285.9303
 11
593.2194
 21
1285.6931
  0
LINE
  8
0-3
  6
CONTINUOUS
 62
    3
 10
593.2194
 20
1285.6931
 11
592.84527
 21
1285.448
  0
LINE
  8
0-3
  6
CONTINUOUS
 62
    3
 10
592.84527
 20
1285.448
 11
592.46342
 21
1285.192
  0
LINE
  8
0-3
  6
CONTINUOUS
 62
    3
 10
592.46342
 20
1285.192
 11
592.07682
 21
1284.9285
  0
LINE
  8
0-3
  6
CONTINUOUS
 62
    3
 10
594.18352
 20
1278.954
 11
593.9347
 21
1278.9064
  0
LINE
  8
0-3
  6
CONTINUOUS
 62
    3
 10
593.9347
 20
1278.9064
 11
593.68973
 21
1278.862
  0
LINE
  8
0-3
  6
CONTINUOUS
 62
    3
 10
593.68973
 20
1278.862
 11
593.44892
 21
1278.818
  0
LINE
  8
0-3
  6
CONTINUOUS
 62
    3
 10
593.44892
 20
1278.818
 11
593.21079
 21
1278.7751
  0
LINE
  8
0-3
  6
CONTINUOUS
 62
    3
 10
593.21079
 20
1278.7751
 11
592.9774
 21
1278.7343
  0
LINE
  8
0-3
  6
CONTINUOUS
 62
    3
 10
592.9774
 20
1278.7343
 11
592.74639
 21
1278.6961
  0
LINE
  8
0-3
  6
CONTINUOUS
 62
    3
 10
592.74639
 20
1278.6961
 11
592.51983
 21
1278.6602
  0
LINE
  8
0-3
  6
CONTINUOUS
 62
    3
 10
592.51983
 20
1278.6602
 11
592.29565
 21
1278.6252
  0
LINE
  8
0-3
  6
CONTINUOUS
 62
    3
 10
592.29565
 20
1278.6252
 11
592.07682
 21
1278.5913
  0
LINE
  8
0-3
  6
CONTINUOUS
 62
    3
 10
599.13153
 20
1274.5093
 11
598.1867
 21
1274.7097
  0
LINE
  8
0-3
  6
CONTINUOUS
 62
    3
 10
598.1867
 20
1274.7097
 11
597.28048
 21
1274.9032
  0
LINE
  8
0-3
  6
CONTINUOUS
 62
    3
 10
597.28048
 20
1274.9032
 11
596.41553
 21
1275.0906
  0
LINE
  8
0-3
  6
CONTINUOUS
 62
    3
 10
596.41553
 20
1275.0906
 11
595.59126
 21
1275.2723
  0
LINE
  8
0-3
  6
CONTINUOUS
 62
    3
 10
595.59126
 20
1275.2723
 11
594.80677
 21
1275.447
  0
LINE
  8
0-3
  6
CONTINUOUS
 62
    3
 10
594.80677
 20
1275.447
 11
594.06386
 21
1275.6167
  0
LINE
  8
0-3
  6
CONTINUOUS
 62
    3
 10
594.06386
 20
1275.6167
 11
593.36073
 21
1275.7793
  0
LINE
  8
0-3
  6
CONTINUOUS
 62
    3
 10
593.36073
 20
1275.7793
 11
592.69859
 21
1275.9362
  0
LINE
  8
0-3
  6
CONTINUOUS
 62
    3
 10
592.69859
 20
1275.9362
 11
592.07682
 21
1276.086
  0
LINE
  8
0-3
  6
CONTINUOUS
 62
    3
 10
594.87091
 20
1275.283
 11
594.50123
 21
1275.3835
  0
LINE
  8
0-3
  6
CONTINUOUS
 62
    3
 10
594.50123
 20
1275.3835
 11
594.1467
 21
1275.4803
  0
LINE
  8
0-3
  6
CONTINUOUS
 62
    3
 10
594.1467
 20
1275.4803
 11
593.80731
 21
1275.5757
  0
LINE
  8
0-3
  6
CONTINUOUS
 62
    3
 10
593.80731
 20
1275.5757
 11
593.48396
 21
1275.6678
  0
LINE
  8
0-3
  6
CONTINUOUS
 62
    3
 10
593.48396
 20
1275.6678
 11
593.17694
 21
1275.7563
  0
LINE
  8
0-3
  6
CONTINUOUS
 62
    3
 10
593.17694
 20
1275.7563
 11
592.88387
 21
1275.8404
  0
LINE
  8
0-3
  6
CONTINUOUS
 62
    3
 10
592.88387
 20
1275.8404
 11
592.60683
 21
1275.923
  0
LINE
  8
0-3
  6
CONTINUOUS
 62
    3
 10
592.60683
 20
1275.923
 11
592.34584
 21
1276.0032
  0
LINE
  8
0-3
  6
CONTINUOUS
 62
    3
 10
592.34584
 20
1276.0032
 11
592.10028
 21
1276.0811
  0
LINE
  8
0-3
  6
CONTINUOUS
 62
    3
 10
589.07369
 20
1296.6423
 11
584.23852
 21
1296.6423
  0
LINE
  8
0-3
  6
CONTINUOUS
 62
    3
 10
589.07369
 20
1250.1261
 11
584.23852
 21
1250.1261
  0
LINE
  8
0-3
  6
CONTINUOUS
 62
    3
 10
586.76448
 20
1265.8978
 11
588.51784
 21
1263.9182
  0
LINE
  8
0-3
  6
CONTINUOUS
 62
    3
 10
588.51784
 20
1263.9182
 11
590.4455
 21
1261.8617
  0
LINE
  8
0-3
  6
CONTINUOUS
 62
    3
 10
590.4455
 20
1261.8617
 11
592.51865
 21
1259.7522
  0
LINE
  8
0-3
  6
CONTINUOUS
 62
    3
 10
592.51865
 20
1259.7522
 11
594.71087
 21
1257.6117
  0
LINE
  8
0-3
  6
CONTINUOUS
 62
    3
 10
594.71087
 20
1257.6117
 11
596.99691
 21
1255.4605
  0
LINE
  8
0-3
  6
CONTINUOUS
 62
    3
 10
596.99691
 20
1255.4605
 11
599.35392
 21
1253.3179
  0
LINE
  8
0-3
  6
CONTINUOUS
 62
    3
 10
599.35392
 20
1253.3179
 11
601.75993
 21
1251.2002
  0
LINE
  8
0-3
  6
CONTINUOUS
 62
    3
 10
601.75993
 20
1251.2002
 11
604.19474
 21
1249.1233
  0
LINE
  8
0-3
  6
CONTINUOUS
 62
    3
 10
604.19474
 20
1249.1233
 11
606.63994
 21
1247.1014
  0
LINE
  8
0-3
  6
CONTINUOUS
 62
    3
 10
606.63994
 20
1247.1014
 11
609.07861
 21
1245.1468
  0
LINE
  8
0-3
  6
CONTINUOUS
 62
    3
 10
609.07861
 20
1245.1468
 11
611.49501
 21
1243.2701
  0
LINE
  8
0-3
  6
CONTINUOUS
 62
    3
 10
611.49501
 20
1243.2701
 11
613.87607
 21
1241.4808
  0
LINE
  8
0-3
  6
CONTINUOUS
 62
    3
 10
613.87607
 20
1241.4808
 11
616.20933
 21
1239.7864
  0
LINE
  8
0-3
  6
CONTINUOUS
 62
    3
 10
616.20933
 20
1239.7864
 11
618.48439
 21
1238.1927
  0
LINE
  8
0-3
  6
CONTINUOUS
 62
    3
 10
618.48439
 20
1238.1927
 11
620.69264
 21
1236.7039
  0
LINE
  8
0-3
  6
CONTINUOUS
 62
    3
 10
620.69264
 20
1236.7039
 11
622.82607
 21
1235.3232
  0
LINE
  8
0-3
  6
CONTINUOUS
 62
    3
 10
622.82607
 20
1235.3232
 11
624.88021
 21
1234.0513
  0
LINE
  8
0-3
  6
CONTINUOUS
 62
    3
 10
624.88021
 20
1234.0513
 11
626.84973
 21
1232.8884
  0
LINE
  8
0-3
  6
CONTINUOUS
 62
    3
 10
626.84973
 20
1232.8884
 11
628.73285
 21
1231.8317
  0
LINE
  8
0-3
  6
CONTINUOUS
 62
    3
 10
628.73285
 20
1231.8317
 11
628.87152
 21
1231.7712
  0
LINE
  8
0-3
  6
CONTINUOUS
 62
    3
 10
628.87152
 20
1231.7712
 11
629.0087
 21
1231.7136
  0
LINE
  8
0-3
  6
CONTINUOUS
 62
    3
 10
629.0087
 20
1231.7136
 11
629.14469
 21
1231.6585
  0
LINE
  8
0-3
  6
CONTINUOUS
 62
    3
 10
629.14469
 20
1231.6585
 11
629.2792
 21
1231.6066
  0
LINE
  8
0-3
  6
CONTINUOUS
 62
    3
 10
629.2792
 20
1231.6066
 11
629.41222
 21
1231.5577
  0
LINE
  8
0-3
  6
CONTINUOUS
 62
    3
 10
629.41222
 20
1231.5577
 11
629.54376
 21
1231.5113
  0
LINE
  8
0-3
  6
CONTINUOUS
 62
    3
 10
629.54376
 20
1231.5113
 11
629.67411
 21
1231.4677
  0
LINE
  8
0-3
  6
CONTINUOUS
 62
    3
 10
629.67411
 20
1231.4677
 11
629.80298
 21
1231.4275
  0
LINE
  8
0-3
  6
CONTINUOUS
 62
    3
 10
629.80298
 20
1231.4275
 11
629.93036
 21
1231.3895
  0
LINE
  8
0-3
  6
CONTINUOUS
 62
    3
 10
586.76448
 20
1265.8978
 11
587.80106
 21
1266.4127
  0
LINE
  8
0-3
  6
CONTINUOUS
 62
    3
 10
587.80106
 20
1266.4127
 11
588.72658
 21
1266.9532
  0
LINE
  8
0-3
  6
CONTINUOUS
 62
    3
 10
588.72658
 20
1266.9532
 11
589.54135
 21
1267.5198
  0
LINE
  8
0-3
  6
CONTINUOUS
 62
    3
 10
589.54135
 20
1267.5198
 11
590.24537
 21
1268.1119
  0
LINE
  8
0-3
  6
CONTINUOUS
 62
    3
 10
590.24537
 20
1268.1119
 11
590.83833
 21
1268.7304
  0
LINE
  8
0-3
  6
CONTINUOUS
 62
    3
 10
590.83833
 20
1268.7304
 11
591.32025
 21
1269.374
  0
LINE
  8
0-3
  6
CONTINUOUS
 62
    3
 10
591.32025
 20
1269.374
 11
591.69111
 21
1270.0438
  0
LINE
  8
0-3
  6
CONTINUOUS
 62
    3
 10
591.69111
 20
1270.0438
 11
591.95122
 21
1270.7389
  0
LINE
  8
0-3
  6
CONTINUOUS
 62
    3
 10
591.95122
 20
1270.7389
 11
592.10028
 21
1271.46
  0
LINE
  8
0-3
  6
CONTINUOUS
 62
    3
 10
592.10117
 20
1253.1541
 11
592.10117
 21
1260.1768
  0
LINE
  8
0-3
  6
CONTINUOUS
 62
    3
 10
631.41945
 20
1279.2854
 11
625.45774
 21
1292.4253
  0
LINE
  8
0-3
  6
CONTINUOUS
 62
    3
 10
741.73881
 20
1337.7955
 11
584.23882
 21
1337.7955
  0
LINE
  8
0-3
  6
CONTINUOUS
 62
    3
 10
608.46694
 20
1207.9127
 11
584.23852
 21
1207.9127
  0
LINE
  8
0-3
  6
CONTINUOUS
 62
    3
 10
612.51703
 20
1211.9628
 11
612.51703
 21
1221.7643
  0
LINE
  8
0-3
  6
CONTINUOUS
 62
    3
 10
606.44189
 20
1204.271
 11
584.23852
 21
1204.271
  0
LINE
  8
0-3
  6
CONTINUOUS
 62
    3
 10
608.46694
 20
1206.2963
 11
608.46694
 21
1207.9127
  0
LINE
  8
0-3
  6
CONTINUOUS
 62
    3
 10
334.23824
 20
1257.7951
 11
584.23822
 21
1257.7951
  0
LINE
  8
0-3
  6
CONTINUOUS
 62
    3
 10
334.23824
 20
1267.7949
 11
584.23822
 21
1267.7949
  0
LINE
  8
0-3
  6
CONTINUOUS
 62
    3
 10
334.23824
 20
1302.7951
 11
584.23822
 21
1302.7951
  0
LINE
  8
0-3
  6
CONTINUOUS
 62
    3
 10
334.23824
 20
1312.7947
 11
584.23822
 21
1312.7947
  0
LINE
  8
0-3
  6
CONTINUOUS
 62
    3
 10
741.73822
 20
1257.7951
 11
834.2382
 21
1257.7951
  0
LINE
  8
0-3
  6
CONTINUOUS
 62
    3
 10
741.73822
 20
1267.7949
 11
834.2382
 21
1267.7949
  0
LINE
  8
0-3
  6
CONTINUOUS
 62
    3
 10
834.23731
 20
1302.7951
 11
834.23731
 21
1267.7947
  0
LINE
  8
0-3
  6
CONTINUOUS
 62
    3
 10
819.39048
 20
1259.8883
 11
819.39048
 21
1251.5179
  0
LINE
  8
0-3
  6
CONTINUOUS
 62
    3
 10
744.73808
 20
1319.3401
 11
741.73822
 21
1319.3401
  0
LINE
  8
0-3
  6
CONTINUOUS
 62
    3
 10
744.73808
 20
1319.3401
 11
744.73808
 21
1301.132
  0
LINE
  8
0-3
  6
CONTINUOUS
 62
    3
 10
737.2172
 20
1310.3858
 11
749.28613
 21
1310.3858
  0
LINE
  8
0-3
  6
CONTINUOUS
 62
    3
 10
744.73808
 20
1254.7951
 11
744.73808
 21
1192.7953
  0
LINE
  8
0-3
  6
CONTINUOUS
 62
    3
 10
736.82793
 20
1203.4562
 11
750.25945
 21
1203.4562
  0
LINE
  8
0-3
  6
CONTINUOUS
 62
    3
 10
834.23731
 20
1254.7951
 11
744.73808
 21
1254.7951
  0
LINE
  8
0-3
  6
CONTINUOUS
 62
    3
 10
834.23731
 20
1267.7947
 11
834.23731
 21
1254.7951
  0
LINE
  8
0-3
  6
CONTINUOUS
 62
    3
 10
831.23745
 20
1302.024
 11
831.23745
 21
1254.7951
  0
LINE
  8
0-3
  6
CONTINUOUS
 62
    3
 10
827.28445
 20
1295.6951
 11
839.15176
 21
1295.6951
  0
LINE
  8
0-3
  6
CONTINUOUS
 62
    3
 10
696.31599
 20
1422.4644
 11
584.23822
 21
1422.4644
  0
LINE
  8
0-3
  6
CONTINUOUS
 62
    3
 10
584.23822
 20
1369.756
 11
696.31599
 21
1422.4644
  0
LINE
  8
0-3
  6
CONTINUOUS
 62
    3
 10
628.47245
 20
1388.2949
 11
834.2382
 21
1388.2949
  0
LINE
  8
0-3
  6
CONTINUOUS
 62
    3
 10
334.23824
 20
1388.2949
 11
584.23822
 21
1388.2949
  0
LINE
  8
0-3
  6
CONTINUOUS
 62
    7
 10
741.73822
 20
1137.7956
 11
814.6714
 21
1137.7956
  0
LINE
  8
0-8
  6
CONTINUOUS
 62
    7
 10
949.33513
 20
1137.7956
 11
949.33513
 21
1257.7951
  0
LINE
  8
0-8
  6
CONTINUOUS
 62
    7
 10
834.23731
 20
1137.7956
 11
949.33513
 21
1137.7956
  0
LINE
  8
0-8
  6
CONTINUOUS
 62
    7
 10
834.23731
 20
1257.7951
 11
949.33513
 21
1257.7951
  0
LINE
  8
0-8
  6
CONTINUOUS
 62
    7
 10
949.33513
 20
1257.7951
 11
949.33513
 21
1388.188
  0
LINE
  8
0-8
  6
CONTINUOUS
 62
    7
 10
845.53779
 20
1388.188
 11
949.33513
 21
1388.188
  0
LINE
  8
0-8
  6
CONTINUOUS
 62
    7
 10
949.33513
 20
1388.188
 11
949.33513
 21
1448.2946
  0
LINE
  8
0-8
  6
CONTINUOUS
 62
    7
 10
845.53779
 20
1448.2946
 11
949.33513
 21
1448.2946
  0
LINE
  8
0-3
  6
CONTINUOUS
 62
    3
 10
741.73881
 20
1327.7955
 11
584.23822
 21
1327.7955
  0
LINE
  8
0-3
  6
CONTINUOUS
 62
    3
 10
741.73822
 20
1292.7958
 11
726.81107
 21
1292.7958
  0
LINE
  8
0-3
  6
CONTINUOUS
 62
    3
 10
741.73822
 20
1282.7963
 11
731.53341
 21
1282.7963
  0
LINE
  8
0-3
  6
CONTINUOUS
 62
    7
 10
741.73822
 20
1337.7955
 11
814.6714
 21
1337.7955
  0
LINE
  8
0-3
  6
CONTINUOUS
 62
    7
 10
814.6714
 20
1137.7956
 11
814.6714
 21
1337.7955
  0
LINE
  8
0-3
  6
CONTINUOUS
 62
    3
 10
741.73822
 20
1282.7963
 11
741.73822
 21
1192.7953
  0
LINE
  8
0-3
  6
CONTINUOUS
 62
    3
 10
741.73822
 20
1327.7955
 11
741.73822
 21
1292.7958
  0
LINE
  8
0-3
  6
CONTINUOUS
 62
    3
 10
744.73808
 20
1301.132
 11
810.57499
 21
1257.7951
  0
LINE
  8
0-3
  6
CONTINUOUS
 62
    3
 10
741.73822
 20
1299.5152
 11
808.92526
 21
1255.2892
  0
LINE
  8
0-3
  6
CONTINUOUS
 62
    3
 10
744.73808
 20
1302.7951
 11
834.2382
 21
1302.7951
  0
LINE
  8
0-3
  6
CONTINUOUS
 62
    3
 10
744.73808
 20
1312.7947
 11
834.2382
 21
1312.7947
  0
LINE
  8
0-1
  6
CENTER2
 62
    7
 10
584.23822
 20
1038.4188
 11
584.23822
 21
1534.56
  0
LINE
  8
0-3
  6
CONTINUOUS
 62
    3
 10
612.51703
 20
1241.5514
 11
612.51703
 21
1228.5164
  0
LINE
  8
0-3
  6
CONTINUOUS
 62
    3
 10
607.51706
 20
1246.5515
 11
584.23852
 21
1246.5515
  0
ARC
  8
0-3
  6
CONTINUOUS
 62
    3
 10
426.73822
 20
1142.7953
 40
4.9997686
 50
90
 51
270
  0
ARC
  8
0-3
  6
CONTINUOUS
 62
    3
 10
426.73822
 20
1187.7953
 40
4.9997686
 50
90
 51
270
  0
ARC
  8
0-3
  6
CONTINUOUS
 62
    3
 10
741.73822
 20
1142.7953
 40
4.9997686
 50
270
 51
90
  0
ARC
  8
0-3
  6
CONTINUOUS
 62
    3
 10
741.73822
 20
1187.7953
 40
4.9997686
 50
270
 51
90
  0
ARC
  8
0-3
  6
CONTINUOUS
 62
    3
 10
334.23824
 20
1307.7951
 40
4.9997686
 50
90
 51
270
  0
ARC
  8
0-3
  6
CONTINUOUS
 62
    3
 10
334.23824
 20
1262.7949
 40
4.9997686
 50
90
 51
270
  0
ARC
  8
0-3
  6
CONTINUOUS
 62
    3
 10
834.23731
 20
1307.7951
 40
4.9997686
 50
270
 51
90
  0
ARC
  8
0-3
  6
CONTINUOUS
 62
    3
 10
834.23731
 20
1262.7949
 40
4.9997686
 50
270
 51
90
  0
ARC
  8
0-3
  6
CONTINUOUS
 62
    3
 10
589.07369
 20
1253.1541
 40
3.0273542
 50
270
 51
0
  0
ARC
  8
0-3
  6
CONTINUOUS
 62
    3
 10
589.07369
 20
1293.6142
 40
3.0273542
 50
0
 51
90
  0
ARC
  8
0-3
  6
CONTINUOUS
 62
    3
 10
608.46694
 20
1211.9628
 40
4.0499993
 50
270
 51
0
  0
ARC
  8
0-3
  6
CONTINUOUS
 62
    3
 10
606.44189
 20
1206.2963
 40
2.0249996
 50
270
 51
0
  0
ARC
  8
0-3
  6
CONTINUOUS
 62
    3
 10
741.73822
 20
1332.7958
 40
4.9997686
 50
270
 51
90
  0
ARC
  8
0-3
  6
CONTINUOUS
 62
    3
 10
741.73822
 20
1287.7959
 40
4.9997686
 50
270
 51
90
  0
TEXT
  8
0-d
 10
107.23791
 20
86.035271
 40
15
 41
1
 50
0
  1
図
  0
TEXT
  8
0-d
 10
107.23791
 20
50.035301
 40
15
 41
1
 50
0
  1
番
  0
TEXT
  8
0-d
 10
347.23833
 20
86.035271
 40
15
 41
1
 50
0
  1
承
  0
TEXT
  8
0-d
 10
347.23833
 20
50.035301
 40
15
 41
1
 50
0
  1
認
  0
TEXT
  8
0-d
 10
566.23831
 20
134.03528
 40
15
 41
1
 50
0
  1
尺
  0
TEXT
  8
0-d
 10
566.23831
 20
110.0352
 40
15
 41
1
 50
0
  1
度
  0
TEXT
  8
0-d
 10
467.23813
 20
86.035271
 40
15
 41
1
 50
0
  1
製
  0
TEXT
  8
0-d
 10
467.23813
 20
50.035301
 40
15
 41
1
 50
0
  1
図
  0
TEXT
  8
0-d
 10
887.23818
 20
134.03528
 40
15
 41
1
 50
0
  1
日
  0
TEXT
  8
0-d
 10
887.23818
 20
110.0352
 40
15
 41
1
 50
0
  1
付
  0
TEXT
  8
0-d
 10
621.09394
 20
89.624682
 40
12
 41
1
 50
0
  1
株式
  0
TEXT
  8
0-d
 10
621.09394
 20
76.646414
 40
12
 41
1
 50
0
  1
会社
  0
TEXT
  8
0-d
 10
658.77289
 20
77.483602
 40
24
 41
1
 50
0
  1
スズキベンチレーター
  0
TEXT
  8
0-d
 10
696.98898
 20
47.949828
 40
12
 41
1
 50
0
  1
TEL(054)296-7000  FAX(054)296-7001
  0
TEXT
  8
0-d
 10
604.84753
 20
117.59572
 40
24
 41
1
 50
0
  1
１／６
  0
TEXT
  8
0-8
 10
169.23829
 20
1288.7947
 40
18
 41
1
 50
90
  1
310
  0
TEXT
  8
0-8
 10
571.48814
 20
1549.5605
 40
18
 41
1
 50
0
  1
500
  0
TEXT
  8
0-8
 10
531.79454
 20
1045.6327
 40
18
 41
1
 50
0
  1
315φ
  0
TEXT
  8
0-8
 10
943.33511
 20
1185.0453
 40
18
 41
1
 50
90
  1
120
  0
TEXT
  8
0-8
 10
943.33511
 20
1310.2416
 40
18
 41
1
 50
90
  1
130
  0
TEXT
  8
0-8
 10
943.33511
 20
1409.9912
 40
18
 41
1
 50
90
  1
60
  0
TEXT
  8
0-3
 10
808.67139
 20
1225.0455
 40
18
 41
1
 50
90
  1
200
  0
TEXT
  8
0-d
 10
121.34614
 20
1693.5081
 40
30
 41
1
 50
0
  1
ＳＴ－３０　　直付型　断面
  0
TEXT
  8
0-d
 10
119.8978
 20
113.37192
 40
30
 41
1
 50
0
  1
ＳＴ－３０　　直付型　断面
  0
TEXT
  8
0-d
 10
136.39259
 20
78.87649
 40
18
 41
1
 50
0
  1
30-A03a
  0
TEXT
  8
0-d
 10
695.64568
 20
62.722876
 40
12
 41
1
 50
0
  1
〒421-2114　静岡市葵区安倍口新田１５２番地
  0
POINT
  8
0-8
 62
    2
 10
184.23834
 20
1137.7954
  0
POINT
  8
0-8
 62
    2
 10
184.23834
 20
1448.2946
  0
POINT
  8
0-8
 62
    2
 10
334.23824
 20
1534.56
  0
POINT
  8
0-8
 62
    2
 10
834.2382
 20
1534.56
  0
POINT
  8
0-8
 62
    2
 10
426.73822
 20
1038.4188
  0
POINT
  8
0-8
 62
    2
 10
741.73822
 20
1038.4188
  0
POINT
  8
0-3
 62
    2
 10
814.6714
 20
1137.7956
  0
POINT
  8
0-3
 62
    2
 10
814.6714
 20
1337.7955
  0
POINT
  8
0-8
 62
    2
 10
949.33513
 20
1137.7956
  0
POINT
  8
0-8
 62
    2
 10
949.33513
 20
1257.7951
  0
POINT
  8
0-8
 62
    2
 10
949.33513
 20
1388.188
  0
POINT
  8
0-8
 62
    2
 10
949.33513
 20
1448.2946
  0
ENDSEC
  0
EOF
