  0
SECTION
  2
HEADER
  9
$EXTMIN
 10
0
 20
0
  9
$EXTMAX
 10
2520
 20
1782
  0
ENDSEC
  0
SECTION
  2
TABLES
  0
TABLE
  2
LTYPE
 70
     9
  0
LTYPE
  2
CONTINUOUS
 70
    64
  3
実線
 72
    65
 73
     0
 40
0.0
  0
LTYPE
  2
DASHED1
 70
    64
  3
--  --  --  --  --  --  --  --  
 72
    65
 73
     2
 40
2.5
 49
1.25
 49
-1.25
  0
LTYPE
  2
DASHED2
 70
    64
  3
----    ----    ----    ----    
 72
    65
 73
     2
 40
5.0
 49
2.5
 49
-2.5
  0
LTYPE
  2
DASHED3
 70
    64
  3
------  ------  ------  ------  
 72
    65
 73
     2
 40
5.0
 49
3.75
 49
-1.25
  0
LTYPE
  2
CENTER1
 70
    64
  3
----- - ----- - ----- - ----- - 
 72
    65
 73
     4
 40
10.0
 49
6.25
 49
-1.25
 49
1.25
 49
-1.25
  0
LTYPE
  2
CENTER2
 70
    64
  3
----------  --  ----------  --  
 72
    65
 73
     4
 40
20.0
 49
12.5
 49
-2.5
 49
2.5
 49
-2.5
  0
LTYPE
  2
PHANTOM1
 70
    64
  3
--- - - --- - - --- - - --- - - 
 72
    65
 73
     6
 40
10.0
 49
3.25
 49
-1.25
 49
1.25
 49
-1.25
 49
1.25
 49
-1.25
  0
LTYPE
  2
PHANTOM2
 70
    64
  3
--------  -  -  --------  -  -  
 72
    65
 73
     6
 40
20.0
 49
10.0
 49
-2.5
 49
1.25
 49
-2.5
 49
1.25
 49
-2.5
  0
LTYPE
  2
DOT
 70
    64
  3
-   -   -   -   -   -   -   -   
 72
    65
 73
     2
 40
2.5
 49
0.625
 49
-1.875
  0
ENDTAB
  0
TABLE
  2
STYLE
 70
    1
  0
STYLE
  2
STANDARD
 70
    64
 40
0.0
 41
1.0
 42
0.0
 50
0.0
 71
     0
  3
TXT
  4
BIGFONT
  0
ENDTAB
  0
TABLE
  2
LAYER
 70
    5
  0
LAYER
  2
0-1
 70
   64
 62
    7
  6
CONTINUOUS
  0
LAYER
  2
0-2
 70
   64
 62
    7
  6
CONTINUOUS
  0
LAYER
  2
0-8
 70
   64
 62
    7
  6
CONTINUOUS
  0
LAYER
  2
0-d
 70
   64
 62
    7
  6
CONTINUOUS
  0
LAYER
  2
ADD_LINE
 70
   64
 62
    7
  6
CONTINUOUS
  0
ENDTAB
  0
ENDSEC
  0
SECTION
  2
ENTITIES
  0
LINE
  8
0-8
  6
CONTINUOUS
 62
    7
 10
380.00001
 20
1418.5104
 11
879.9999
 21
1418.5104
  0
LINE
  8
0-d
  6
CONTINUOUS
 62
    7
 10
150.00002
 20
1654.6207
 11
1110
 21
1654.6207
  0
LINE
  8
0-d
  6
CONTINUOUS
 62
    7
 10
150.00002
 20
1660.6208
 11
1110
 21
1660.6208
  0
LINE
  8
0-8
  6
CONTINUOUS
 62
    7
 10
380.00001
 20
1300.1808
 11
380.00001
 21
1418.5104
  0
LINE
  8
0-8
  6
CONTINUOUS
 62
    7
 10
879.9999
 20
1300.1808
 11
879.9999
 21
1418.5104
  0
LINE
  8
0-2
  6
CONTINUOUS
 62
    3
 10
368.70024
 20
1269.5337
 11
629.99999
 21
1332.2448
  0
LINE
  8
0-2
  6
CONTINUOUS
 62
    3
 10
891.29948
 20
1269.5337
 11
629.99999
 21
1332.2448
  0
LINE
  8
0-8
  6
CONTINUOUS
 62
    7
 10
230.00022
 20
981.74569
 11
230.00022
 21
1332.2448
  0
LINE
  8
0-8
  6
CONTINUOUS
 62
    7
 10
347.50085
 20
981.74569
 11
230.00022
 21
981.74569
  0
LINE
  8
0-8
  6
CONTINUOUS
 62
    7
 10
370
 20
904.43498
 11
889.99998
 21
904.43498
  0
LINE
  8
0-2
  6
CONTINUOUS
 62
    3
 10
380.00001
 20
1272.2449
 11
380.00001
 21
1196.7449
  0
LINE
  8
0-2
  6
CONTINUOUS
 62
    3
 10
380.00001
 20
1186.7453
 11
380.00001
 21
1151.7449
  0
LINE
  8
0-8
  6
CONTINUOUS
 62
    7
 10
430.05216
 20
1332.2448
 11
230.00022
 21
1332.2448
  0
LINE
  8
0-8
  6
CONTINUOUS
 62
    7
 10
1027.5967
 20
1141.7453
 11
1027.5967
 21
1272.1381
  0
LINE
  8
0-8
  6
CONTINUOUS
 62
    7
 10
891.29948
 20
1272.1381
 11
1027.5967
 21
1272.1381
  0
LINE
  8
0-8
  6
CONTINUOUS
 62
    7
 10
1027.5967
 20
1272.1381
 11
1027.5967
 21
1332.2448
  0
LINE
  8
0-8
  6
CONTINUOUS
 62
    7
 10
891.29948
 20
1332.2448
 11
1027.5967
 21
1332.2448
  0
LINE
  8
0-2
  6
CONTINUOUS
 62
    3
 10
370
 20
981.74532
 11
370
 21
1041.7453
  0
LINE
  8
0-2
  6
CONTINUOUS
 62
    3
 10
370
 20
981.74532
 11
889.99998
 21
981.74532
  0
LINE
  8
0-2
  6
CONTINUOUS
 62
    3
 10
370
 20
1041.7453
 11
889.99998
 21
1041.7453
  0
LINE
  8
0-8
  6
CONTINUOUS
 62
    7
 10
1027.5967
 20
981.74532
 11
1027.5967
 21
1041.7453
  0
LINE
  8
0-8
  6
CONTINUOUS
 62
    7
 10
891.29948
 20
981.74532
 11
1027.5967
 21
981.74532
  0
LINE
  8
0-8
  6
CONTINUOUS
 62
    7
 10
891.29948
 20
1041.7453
 11
1027.5967
 21
1041.7453
  0
LINE
  8
0-8
  6
CONTINUOUS
 62
    7
 10
1027.5967
 20
1041.7453
 11
1027.5967
 21
1141.7453
  0
LINE
  8
0-8
  6
CONTINUOUS
 62
    7
 10
891.29948
 20
1141.7453
 11
1027.5967
 21
1141.7453
  0
LINE
  8
0-8
  6
CONTINUOUS
 62
    7
 10
370
 20
966.97368
 11
370
 21
904.43498
  0
LINE
  8
0-8
  6
CONTINUOUS
 62
    7
 10
889.99998
 20
966.97368
 11
889.99998
 21
904.43498
  0
LINE
  8
0-2
  6
CONTINUOUS
 62
    3
 10
879.99915
 20
1272.2449
 11
879.99915
 21
1196.7449
  0
LINE
  8
0-2
  6
CONTINUOUS
 62
    3
 10
879.99915
 20
1186.7453
 11
879.99915
 21
1151.7449
  0
LINE
  8
0-2
  6
CONTINUOUS
 62
    3
 10
889.99998
 20
981.74532
 11
889.99998
 21
1041.7453
  0
LINE
  8
0-2
  6
CONTINUOUS
 62
    3
 10
380.00001
 20
1272.2449
 11
879.99915
 21
1272.2449
  0
LINE
  8
0-2
  6
CONTINUOUS
 62
    3
 10
380.00001
 20
1196.7449
 11
879.99915
 21
1196.7449
  0
LINE
  8
0-2
  6
CONTINUOUS
 62
    3
 10
380.00001
 20
1186.7453
 11
879.99915
 21
1186.7453
  0
LINE
  8
0-2
  6
CONTINUOUS
 62
    3
 10
380.00001
 20
1151.7452
 11
879.99915
 21
1151.7452
  0
LINE
  8
0-2
  6
CONTINUOUS
 62
    3
 10
380.00001
 20
1141.7453
 11
879.99915
 21
1141.7453
  0
LINE
  8
0-2
  6
CONTINUOUS
 62
    3
 10
370
 20
1041.7453
 11
489.69059
 21
1110.849
  0
LINE
  8
0-2
  6
CONTINUOUS
 62
    3
 10
489.69059
 20
1041.7453
 11
489.69059
 21
1110.849
  0
LINE
  8
0-2
  6
CONTINUOUS
 62
    3
 10
889.99998
 20
1041.7453
 11
770.30935
 21
1110.849
  0
LINE
  8
0-2
  6
CONTINUOUS
 62
    3
 10
770.30935
 20
1041.7453
 11
770.30935
 21
1110.849
  0
LINE
  8
0-2
  6
CONTINUOUS
 62
    3
 10
472.49995
 20
1131.4594
 11
787.49999
 21
1131.4592
  0
LINE
  8
0-2
  6
CONTINUOUS
 62
    3
 10
472.49995
 20
1121.4597
 11
787.49999
 21
1121.4594
  0
LINE
  8
0-2
  6
CONTINUOUS
 62
    3
 10
787.49999
 20
1141.7453
 11
787.49999
 21
1131.4591
  0
LINE
  8
0-2
  6
CONTINUOUS
 62
    3
 10
787.49999
 20
1121.4594
 11
787.49999
 21
1100.9239
  0
LINE
  8
0-2
  6
CONTINUOUS
 62
    3
 10
472.49995
 20
1141.7453
 11
472.49995
 21
1131.4592
  0
LINE
  8
0-2
  6
CONTINUOUS
 62
    3
 10
472.49995
 20
1121.4597
 11
472.49995
 21
1100.9239
  0
LINE
  8
0-d
  6
CONTINUOUS
 62
    7
 10
149.99989
 20
89.999999
 11
1110.0003
 21
89.999999
  0
LINE
  8
0-d
  6
CONTINUOUS
 62
    7
 10
149.99989
 20
30.000005
 11
149.99989
 21
137.99999
  0
LINE
  8
0-d
  6
CONTINUOUS
 62
    7
 10
149.99989
 20
30.000005
 11
1110.0003
 21
30.000005
  0
LINE
  8
0-d
  6
CONTINUOUS
 62
    7
 10
1110.0003
 20
137.99999
 11
1110.0003
 21
30.000005
  0
LINE
  8
0-d
  6
CONTINUOUS
 62
    7
 10
149.99989
 20
137.99999
 11
1110.0003
 21
137.99999
  0
LINE
  8
0-d
  6
CONTINUOUS
 62
    7
 10
629.99999
 20
137.99999
 11
629.99999
 21
30.000005
  0
LINE
  8
0-d
  6
CONTINUOUS
 62
    7
 10
390.00009
 20
30.000005
 11
390.00009
 21
89.999999
  0
LINE
  8
0-d
  6
CONTINUOUS
 62
    7
 10
629.99999
 20
89.999999
 11
629.99999
 21
138
  0
LINE
  8
0-d
  6
CONTINUOUS
 62
    7
 10
509.99989
 20
30.000005
 11
509.99989
 21
89.999999
  0
LINE
  8
0-d
  6
CONTINUOUS
 62
    7
 10
171.00011
 20
30.000005
 11
171.00011
 21
89.999999
  0
LINE
  8
0-d
  6
CONTINUOUS
 62
    7
 10
411.00001
 20
30.000005
 11
411.00001
 21
89.999999
  0
LINE
  8
0-d
  6
CONTINUOUS
 62
    7
 10
531.00011
 20
30.000005
 11
531.00011
 21
89.999999
  0
LINE
  8
0-d
  6
CONTINUOUS
 62
    7
 10
609.00007
 20
89.999999
 11
609.00007
 21
138
  0
LINE
  8
0-d
  6
CONTINUOUS
 62
    7
 10
930.00038
 20
89.999999
 11
930.00038
 21
138
  0
LINE
  8
0-d
  6
CONTINUOUS
 62
    7
 10
951.0003
 20
89.999999
 11
951.0003
 21
138
  0
LINE
  8
0-1
  6
CENTER2
 62
    7
 10
629.99999
 20
963.24323
 11
629.99999
 21
1332.2448
  0
ARC
  8
0-2
  6
CONTINUOUS
 62
    3
 10
380.00001
 20
1191.7452
 40
4.9997686
 50
90
 51
270
  0
ARC
  8
0-2
  6
CONTINUOUS
 62
    3
 10
380.00001
 20
1146.7451
 40
4.9997686
 50
90
 51
270
  0
ARC
  8
0-2
  6
CONTINUOUS
 62
    3
 10
879.99915
 20
1191.7452
 40
4.9997686
 50
270
 51
90
  0
ARC
  8
0-2
  6
CONTINUOUS
 62
    3
 10
879.99915
 20
1146.7451
 40
4.9997686
 50
270
 51
90
  0
ARC
  8
0-2
  6
CONTINUOUS
 62
    3
 10
472.49995
 20
1126.4594
 40
4.9997686
 50
90
 51
270
  0
ARC
  8
0-2
  6
CONTINUOUS
 62
    3
 10
787.49999
 20
1126.4591
 40
4.9997686
 50
270
 51
90
  0
TEXT
  8
0-8
 10
617.24999
 20
1433.5109
 40
18
 41
1
 50
0
  1
500
  0
TEXT
  8
0-8
 10
1021.5967
 20
1194.1919
 40
18
 41
1
 50
90
  1
130
  0
TEXT
  8
0-8
 10
1021.5967
 20
1293.9415
 40
18
 41
1
 50
90
  1
60
  0
TEXT
  8
0-8
 10
1021.5967
 20
1003.4952
 40
18
 41
1
 50
90
  1
60
  0
TEXT
  8
0-8
 10
1021.5967
 20
1078.9953
 40
18
 41
1
 50
90
  1
100
  0
TEXT
  8
0-8
 10
215.00017
 20
1172.7448
 40
18
 41
1
 50
90
  1
350
  0
TEXT
  8
0-d
 10
152.9999
 20
70.49999
 40
15
 41
1
 50
0
  1
図
  0
TEXT
  8
0-d
 10
152.9999
 20
34.500002
 40
15
 41
1
 50
0
  1
番
  0
TEXT
  8
0-d
 10
393.00025
 20
70.49999
 40
15
 41
1
 50
0
  1
承
  0
TEXT
  8
0-d
 10
393.00025
 20
34.500002
 40
15
 41
1
 50
0
  1
認
  0
TEXT
  8
0-d
 10
612.00023
 20
118.50001
 40
15
 41
1
 50
0
  1
尺
  0
TEXT
  8
0-d
 10
612.00023
 20
94.500014
 40
15
 41
1
 50
0
  1
度
  0
TEXT
  8
0-d
 10
513.00005
 20
70.49999
 40
15
 41
1
 50
0
  1
製
  0
TEXT
  8
0-d
 10
513.00005
 20
34.500002
 40
15
 41
1
 50
0
  1
図
  0
TEXT
  8
0-d
 10
933.00024
 20
118.50001
 40
15
 41
1
 50
0
  1
日
  0
TEXT
  8
0-d
 10
933.00024
 20
94.500014
 40
15
 41
1
 50
0
  1
付
  0
TEXT
  8
0-d
 10
666.85585
 20
74.089365
 40
12
 41
1
 50
0
  1
株式
  0
TEXT
  8
0-d
 10
666.85585
 20
61.111115
 40
12
 41
1
 50
0
  1
会社
  0
TEXT
  8
0-d
 10
704.5348
 20
61.948414
 40
24
 41
1
 50
0
  1
スズキベンチレーター
  0
TEXT
  8
0-d
 10
742.75089
 20
32.414594
 40
12
 41
1
 50
0
  1
TEL(054)296-7000  FAX(054)296-7001
  0
TEXT
  8
0-8
 10
600.68216
 20
915.8687
 40
18
 41
1
 50
0
  1
520*520
  0
TEXT
  8
0-d
 10
167.10809
 20
1677.9729
 40
30
 41
1
 50
0
  1
ＳＴ－３０　　架台型　立面
  0
TEXT
  8
0-d
 10
650.60945
 20
102.06046
 40
24
 41
1
 50
0
  1
１／６
  0
TEXT
  8
0-d
 10
165.65979
 20
97.836712
 40
30
 41
1
 50
0
  1
ＳＴ－３０　　架台型立面
  0
TEXT
  8
0-d
 10
182.15458
 20
63.341228
 40
18
 41
1
 50
0
  1
30-A02b
  0
TEXT
  8
0-d
 10
741.40759
 20
47.187652
 40
12
 41
1
 50
0
  1
〒421-2114　静岡市葵区安倍口新田１５２番地
  0
POINT
  8
0-8
 62
    2
 10
230.00022
 20
981.74569
  0
POINT
  8
0-8
 62
    2
 10
230.00022
 20
1332.2448
  0
POINT
  8
0-8
 62
    2
 10
370
 20
904.43498
  0
POINT
  8
0-8
 62
    2
 10
889.99998
 20
904.43498
  0
POINT
  8
0-8
 62
    2
 10
1027.5967
 20
1141.7453
  0
POINT
  8
0-8
 62
    2
 10
1027.5967
 20
1272.1381
  0
POINT
  8
0-8
 62
    2
 10
1027.5967
 20
1332.2448
  0
POINT
  8
0-8
 62
    2
 10
1027.5967
 20
981.74532
  0
POINT
  8
0-8
 62
    2
 10
1027.5967
 20
1041.7453
  0
POINT
  8
0-8
 62
    2
 10
879.9999
 20
1418.5104
  0
POINT
  8
0-2
 62
    2
 10
380.00001
 20
1418.5104
  0
ENDSEC
  0
EOF
